0
SECTION
2
HEADER
9
$INSUNITS
70
4
9
$ACADVER
1
AC1014
9
$HANDSEED
5
FFFF
0
ENDSEC
0
SECTION
2
TABLES
0
TABLE
2
VPORT
5
8
100
AcDbSymbolTable
0
ENDTAB
0
TABLE
2
LTYPE
5
5
100
AcDbSymbolTable
0
LTYPE
5
14
100
AcDbSymbolTableRecord
100
AcDbLinetypeTableRecord
2
BYBLOCK
70
0
0
LTYPE
5
15
100
AcDbSymbolTableRecord
100
AcDbLinetypeTableRecord
2
BYLAYER
70
0
0
ENDTAB
0
TABLE
2
LAYER
5
2
100
AcDbSymbolTable
70
2
0
LAYER
5
50
100
AcDbSymbolTableRecord
100
AcDbLayerTableRecord
2
0
70
0
6
CONTINUOUS
0
ENDTAB
0
TABLE
2
STYLE
5
3
100
AcDbSymbolTable
70
1
0
STYLE
5
11
100
AcDbSymbolTableRecord
100
AcDbTextStyleTableRecord
2
STANDARD
70
0
0
ENDTAB
0
TABLE
2
VIEW
5
6
100
AcDbSymbolTable
70
0
0
ENDTAB
0
TABLE
2
UCS
5
7
100
AcDbSymbolTable
70
0
0
ENDTAB
0
TABLE
2
APPID
5
9
100
AcDbSymbolTable
70
2
0
APPID
5
12
100
AcDbSymbolTableRecord
100
AcDbRegAppTableRecord
2
ACAD
70
0
0
ENDTAB
0
TABLE
2
DIMSTYLE
5
A
100
AcDbSymbolTable
70
1
0
ENDTAB
0
TABLE
2
BLOCK_RECORD
5
1
100
AcDbSymbolTable
70
1
0
BLOCK_RECORD
5
1F
100
AcDbSymbolTableRecord
100
AcDbBlockTableRecord
2
*MODEL_SPACE
0
BLOCK_RECORD
5
1B
100
AcDbSymbolTableRecord
100
AcDbBlockTableRecord
2
*PAPER_SPACE
0
ENDTAB
0
ENDSEC
0
SECTION
2
BLOCKS
0
BLOCK
5
20
100
AcDbEntity
100
AcDbBlockBegin
2
*MODEL_SPACE
0
ENDBLK
5
21
100
AcDbEntity
100
AcDbBlockEnd
0
BLOCK
5
1C
100
AcDbEntity
100
AcDbBlockBegin
2
*PAPER_SPACE
0
ENDBLK
5
1D
100
AcDbEntity
100
AcDbBlockEnd
0
ENDSEC
0
SECTION
2
ENTITIES
0
SPLINE
5
100
100
AcDbEntity
8
0
100
AcDbSpline
70
1064
71
3
72
8
73
4
74
0
42
0.000000001
43
0.0000000001
44
0.0000000001
40
0
40
0
40
0
40
0
40
1
40
1
40
1
40
1
10
43.014680844275972
20
42.848761485218688
30
-41.832552262526477
10
43.052046713053528
20
42.854989377489396
30
-41.832552262526477
10
43.139238808477671
20
42.861217299457024
30
-41.832552262526477
10
43.182834856189757
20
42.867445191727718
30
-41.832552262526477
0
SPLINE
5
101
100
AcDbEntity
8
0
100
AcDbSpline
70
1064
71
3
72
8
73
4
74
0
42
0.000000001
43
0.0000000001
44
0.0000000001
40
0
40
0
40
0
40
0
40
1
40
1
40
1
40
1
10
42.790478029195867
20
42.699291922237265
30
-41.832552262526477
10
42.765564915872567
20
42.686836137695863
30
-41.832552262526477
10
42.715742490433364
20
42.655696646645438
30
-41.832552262526477
10
42.697059556044586
20
42.643240862104044
30
-41.832552262526477
0
SPLINE
5
102
100
AcDbEntity
8
0
100
AcDbSpline
70
1064
71
3
72
8
73
4
74
0
42
0.000000001
43
0.0000000001
44
0.0000000001
40
0
40
0
40
0
40
0
40
1
40
1
40
1
40
1
10
48.731890640892708
20
20.895420680728492
30
-41.832552262526477
10
48.781713066331911
20
20.808230485908044
30
-41.832552262526477
10
48.769260310877655
20
20.640076473994263
30
-41.832552262526477
10
48.887588096144832
20
20.608936982943838
30
-41.832552262526477
0
SPLINE
5
103
100
AcDbEntity
8
0
100
AcDbSpline
70
1064
71
3
72
8
73
4
74
0
42
0.000000001
43
0.0000000001
44
0.0000000001
40
0
40
0
40
0
40
0
40
1
40
1
40
1
40
1
10
50.369827109903625
20
19.69343518581983
30
-41.832552262526477
10
50.27640863675235
20
19.69343518581983
30
-41.832552262526477
10
50.189220342535599
20
19.687208808092706
30
-41.832552262526477
10
50.102028247111448
20
19.687208808092706
30
-41.832552262526477
0
SPLINE
5
104
100
AcDbEntity
8
0
100
AcDbSpline
70
1064
71
3
72
8
73
4
74
0
42
0.000000001
43
0.0000000001
44
0.0000000001
40
0
40
0
40
0
40
0
40
1
40
1
40
1
40
1
10
11.158981499690178
20
9.5855571510930346
30
-41.832552262526477
10
11.177665384380804
20
9.6727492465171849
30
-41.832552262526477
10
11.109158123949125
20
9.8159901451076657
30
-41.832552262526477
10
11.22748828497093
20
9.847129636158094
30
-41.832552262526477
0
SPLINE
5
105
100
AcDbEntity
8
0
100
AcDbSpline
70
1064
71
3
72
8
73
4
74
0
42
0.000000001
43
0.0000000001
44
0.0000000001
40
0
40
0
40
0
40
0
40
1
40
1
40
1
40
1
10
11.22748828497093
20
9.847129636158094
30
-41.832552262526477
10
11.208804875431229
20
9.8782691272085188
30
-41.832552262526477
10
11.177665384380804
20
9.9343179303748421
30
-41.832552262526477
10
11.165209302870078
20
9.9592310436981446
30
-41.832552262526477
0
SPLINE
5
106
100
AcDbEntity
8
0
100
AcDbSpline
70
1064
71
3
72
8
73
4
74
0
42
0.000000001
43
0.0000000001
44
0.0000000001
40
0
40
0
40
0
40
0
40
1
40
1
40
1
40
1
10
11.252399972841456
20
16.915794104604792
30
-41.832552262526477
10
11.289767267071781
20
16.915794104604792
30
-41.832552262526477
10
11.358274052352535
20
16.915794104604792
30
-41.832552262526477
10
11.395641821733786
20
16.915794104604792
30
-41.832552262526477
0
SPLINE
5
107
100
AcDbEntity
8
0
100
AcDbSpline
70
1064
71
3
72
8
73
4
74
0
42
0.000000001
43
0.0000000001
44
0.0000000001
40
0
40
0
40
0
40
0
40
1
40
1
40
1
40
1
10
11.395641821733786
20
16.915794104604792
30
-41.832552262526477
10
11.414325231273486
20
17.002984299425243
30
-41.832552262526477
10
11.451692525503812
20
17.090174494245698
30
-41.832552262526477
10
11.482832016554239
20
17.177364689066149
30
-41.832552262526477
0
SPLINE
5
108
100
AcDbEntity
8
0
100
AcDbSpline
70
1064
71
3
72
8
73
4
74
0
42
0.000000001
43
0.0000000001
44
0.0000000001
40
0
40
0
40
0
40
0
40
1
40
1
40
1
40
1
10
11.482832016554239
20
17.177364689066149
30
-41.832552262526477
10
11.451692525503812
20
17.177364689066149
30
-41.832552262526477
10
11.383185740223061
20
17.183592967396976
30
-41.832552262526477
10
11.345818445992734
20
17.183592967396976
30
-41.832552262526477
0
SPLINE
5
109
100
AcDbEntity
8
0
100
AcDbSpline
70
1064
71
3
72
8
73
4
74
0
42
0.000000001
43
0.0000000001
44
0.0000000001
40
0
40
0
40
0
40
0
40
1
40
1
40
1
40
1
10
11.345818445992734
20
17.183592967396976
30
-41.832552262526477
10
11.345818445992734
20
17.214732458447401
30
-41.832552262526477
10
11.339590642812833
20
17.277011440548257
30
-41.832552262526477
10
11.339590642812833
20
17.308150931598682
30
-41.832552262526477
0
SPLINE
5
110
100
AcDbEntity
8
0
100
AcDbSpline
70
1064
71
3
72
8
73
4
74
0
42
0.000000001
43
0.0000000001
44
0.0000000001
40
0
40
0
40
0
40
0
40
1
40
1
40
1
40
1
10
11.339590642812833
20
17.308150931598682
30
-41.832552262526477
10
11.295995070251683
20
17.308150931598682
30
-41.832552262526477
10
11.202576597100403
20
17.308150931598682
30
-41.832552262526477
10
11.158981499690178
20
17.308150931598682
30
-41.832552262526477
0
SPLINE
5
111
100
AcDbEntity
8
0
100
AcDbSpline
70
1064
71
3
72
8
73
4
74
0
42
0.000000001
43
0.0000000001
44
0.0000000001
40
0
40
0
40
0
40
0
40
1
40
1
40
1
40
1
10
11.158981499690178
20
17.308150931598682
30
-41.832552262526477
10
11.158981499690178
20
17.432708895800385
30
-41.832552262526477
10
11.158981499690178
20
17.557266860002088
30
-41.832552262526477
10
11.165209302870078
20
17.68182482420379
30
-41.832552262526477
0
SPLINE
5
112
100
AcDbEntity
8
0
100
AcDbSpline
70
1064
71
3
72
8
73
4
74
0
42
0.000000001
43
0.0000000001
44
0.0000000001
40
0
40
0
40
0
40
0
40
1
40
1
40
1
40
1
10
11.968608267001253
20
19.674752251431052
30
-41.832552262526477
10
11.881417597029875
20
19.668523973100228
30
-41.832552262526477
10
11.787999123878599
20
19.668523973100228
30
-41.832552262526477
10
11.700808453907218
20
19.662295694769405
30
-41.832552262526477
0
SPLINE
5
113
100
AcDbEntity
8
0
100
AcDbSpline
70
1064
71
3
72
8
73
4
74
0
42
0.000000001
43
0.0000000001
44
0.0000000001
40
0
40
0
40
0
40
0
40
1
40
1
40
1
40
1
10
19.51059337953517
20
42.8300778084066
30
-41.832552262526477
10
19.554188476945399
20
42.836305670980366
30
-41.832552262526477
10
19.64137867176585
20
42.842533592948001
30
-41.832552262526477
10
19.684973769176075
20
42.848761485218688
30
-41.832552262526477
0
SPLINE
5
114
100
AcDbEntity
8
0
100
AcDbSpline
70
1064
71
3
72
8
73
4
74
0
42
0.000000001
43
0.0000000001
44
0.0000000001
40
0
40
0
40
0
40
0
40
1
40
1
40
1
40
1
10
19.373578858671817
20
42.556050251526536
30
-41.832552262526477
10
19.348667645952215
20
42.593417664544589
30
-41.832552262526477
10
19.292616942182189
20
42.661924568613074
30
-41.832552262526477
10
19.267704779160738
20
42.699291922237265
30
-41.832552262526477
0
SPLINE
5
115
100
AcDbEntity
8
0
100
AcDbSpline
70
1064
71
3
72
8
73
4
74
0
42
0.000000001
43
0.0000000001
44
0.0000000001
40
0
40
0
40
0
40
0
40
1
40
1
40
1
40
1
10
11.420553034453388
20
17.289467997209904
30
-41.832552262526477
10
11.457920803834638
20
17.258328506159479
30
-41.832552262526477
10
11.457920803834638
20
17.258328506159479
30
-41.832552262526477
10
11.420553034453388
20
17.289467997209904
30
-41.832552262526477
0
SPLINE
5
116
100
AcDbEntity
8
0
100
AcDbSpline
70
1064
71
3
72
8
73
4
74
0
42
0.000000001
43
0.0000000001
44
0.0000000001
40
0
40
0
40
0
40
0
40
1
40
1
40
1
40
1
10
22.020435597958024
20
15.720036888026954
30
-41.832552262526477
10
22.095171136720531
20
15.788544148458632
30
-41.832552262526477
10
22.176133053210158
20
15.726265166357777
30
-41.832552262526477
10
22.238412035311008
20
15.676440840314875
30
-41.832552262526477
0
SPLINE
5
117
100
AcDbEntity
8
0
100
AcDbSpline
70
1064
71
3
72
8
73
4
74
0
42
0.000000001
43
0.0000000001
44
0.0000000001
40
0
40
0
40
0
40
0
40
1
40
1
40
1
40
1
10
27.943167175869789
20
15.153297770788461
30
-41.832552262526477
10
28.017902714632292
20
15.24048796560891
30
-41.832552262526477
10
28.117547565510694
20
15.134614836399685
30
-41.832552262526477
10
28.173600169884423
20
15.084790510356783
30
-41.832552262526477
0
SPLINE
5
118
100
AcDbEntity
8
0
100
AcDbSpline
70
1064
71
3
72
8
73
4
74
0
42
0.000000001
43
0.0000000001
44
0.0000000001
40
0
40
0
40
0
40
0
40
1
40
1
40
1
40
1
10
29.643382626981566
20
15.140843114730508
30
-41.832552262526477
10
29.749257656794498
20
15.252944522270564
30
-41.832552262526477
10
29.86135906433455
20
15.10347534534926
30
-41.832552262526477
10
29.936094603097054
20
15.034968084917582
30
-41.832552262526477
0
SPLINE
5
119
100
AcDbEntity
8
0
100
AcDbSpline
70
1064
71
3
72
8
73
4
74
0
42
0.000000001
43
0.0000000001
44
0.0000000001
40
0
40
0
40
0
40
0
40
1
40
1
40
1
40
1
10
31.374739469747475
20
15.153297770788461
30
-41.832552262526477
10
31.455701386237102
20
15.24048796560891
30
-41.832552262526477
10
31.542891581057553
20
15.128386558068861
30
-41.832552262526477
10
31.605170563158403
20
15.078564132629658
30
-41.832552262526477
0
SPLINE
5
120
100
AcDbEntity
8
0
100
AcDbSpline
70
1064
71
3
72
8
73
4
74
0
42
0.000000001
43
0.0000000001
44
0.0000000001
40
0
40
0
40
0
40
0
40
1
40
1
40
1
40
1
10
24.847901005215967
20
9.9779139780869208
30
-41.832552262526477
10
25.053422786510996
20
9.9779139780869208
30
-41.832552262526477
10
24.935093100640124
20
9.7412546063451622
30
-41.832552262526477
10
24.960004313359718
20
9.6166966421434594
30
-41.832552262526477
0
SPLINE
5
121
100
AcDbEntity
8
0
100
AcDbSpline
70
1064
71
3
72
8
73
4
74
0
42
0.000000001
43
0.0000000001
44
0.0000000001
40
0
40
0
40
0
40
0
40
1
40
1
40
1
40
1
10
24.59255869908543
20
9.2243398151495715
30
-41.832552262526477
10
24.586330420754607
20
9.3239846660279735
30
-41.832552262526477
10
24.580102142423783
20
9.4174031391792532
30
-41.832552262526477
10
24.59255869908543
20
9.5108216123305311
30
-41.832552262526477
0
SPLINE
5
122
100
AcDbEntity
8
0
100
AcDbSpline
70
1064
71
3
72
8
73
4
74
0
42
0.000000001
43
0.0000000001
44
0.0000000001
40
0
40
0
40
0
40
0
40
1
40
1
40
1
40
1
10
24.935093100640124
20
9.872038948273989
30
-41.832552262526477
10
24.910179987316816
20
9.9031784393244173
30
-41.832552262526477
10
24.866585840208444
20
9.9530046659710223
30
-41.832552262526477
10
24.847901005215967
20
9.9779139780869208
30
-41.832552262526477
0
SPLINE
5
123
100
AcDbEntity
8
0
100
AcDbSpline
70
1064
71
3
72
8
73
4
74
0
42
0.000000001
43
0.0000000001
44
0.0000000001
40
0
40
0
40
0
40
0
40
1
40
1
40
1
40
1
10
27.843520424387687
20
7.9787601731325308
30
-41.832552262526477
10
27.955623732531443
20
8.0472655329605089
30
-41.832552262526477
10
28.09886463112192
20
8.0410391552333849
30
-41.832552262526477
10
28.210966038661972
20
7.9725299941980055
30
-41.832552262526477
0
LINE
5
124
100
AcDbEntity
8
0
100
AcDbLine
10
58.990002801874653
20
27.530002162558958
30
0
11
60.000000894069672
21
27.530002162558958
31
0
0
SPLINE
5
125
100
AcDbEntity
8
0
100
AcDbSpline
70
1064
71
3
72
8
73
4
74
0
42
0.000000001
43
0.0000000001
44
0.0000000001
40
0
40
0
40
0
40
0
40
1
40
1
40
1
40
1
10
107.01717095411249
20
124.71028399761279
30
0
10
107.26692727554571
20
124.67328321956749
30
0
10
107.57218249246662
20
124.719534181097
30
0
10
107.701687443097
20
124.44202841191995
30
0
0
SPLINE
5
126
100
AcDbEntity
8
0
100
AcDbSpline
70
1064
71
3
72
8
73
4
74
0
42
0.000000001
43
0.0000000001
44
0.0000000001
40
0
40
0
40
0
40
0
40
1
40
1
40
1
40
1
10
107.701687443097
20
124.44202841191995
30
0
10
107.75718633858467
20
124.45127859540418
30
0
10
107.88669128921504
20
124.46052882299675
30
0
10
107.95144376453023
20
124.46977900648099
30
0
0
SPLINE
5
127
100
AcDbEntity
8
0
100
AcDbSpline
70
1064
71
3
72
8
73
4
74
0
42
0.000000001
43
0.0000000001
44
0.0000000001
40
0
40
0
40
0
40
0
40
1
40
1
40
1
40
1
10
107.95144376453023
20
124.46977900648099
30
0
10
108.08094306929124
20
124.34952653296926
30
0
10
108.25669898145114
20
124.35877667234514
30
0
10
108.42320131378351
20
124.36802689993775
30
0
0
SPLINE
5
128
100
AcDbEntity
8
0
100
AcDbSpline
70
1064
71
3
72
8
73
4
74
0
42
0.000000001
43
0.0000000001
44
0.0000000001
40
0
40
0
40
0
40
0
40
1
40
1
40
1
40
1
10
108.42320131378351
20
124.36802689993775
30
0
10
108.36770241829583
20
124.19227319319558
30
0
10
108.25669898145114
20
123.97026861314059
30
0
10
108.03469210776174
20
124.06277053619961
30
0
0
SPLINE
5
129
100
AcDbEntity
8
0
100
AcDbSpline
70
1064
71
3
72
8
73
4
74
0
42
0.000000001
43
0.0000000001
44
0.0000000001
40
0
40
0
40
0
40
0
40
1
40
1
40
1
40
1
10
108.03469210776174
20
124.06277053619961
30
0
10
107.81269087994168
20
124.20152342078815
30
0
10
107.47043263544941
20
123.88701691767416
30
0
10
107.36868277843223
20
124.2200237877566
30
0
0
SPLINE
5
130
100
AcDbEntity
8
0
100
AcDbSpline
70
1064
71
3
72
8
73
4
74
0
42
0.000000001
43
0.0000000001
44
0.0000000001
40
0
40
0
40
0
40
0
40
1
40
1
40
1
40
1
10
107.36868277843223
20
124.2200237877566
30
0
10
107.3316797508609
20
124.20152342078815
30
0
10
107.25767934158753
20
124.15527245925864
30
0
10
107.22992989384369
20
124.13677209229019
30
0
0
SPLINE
5
131
100
AcDbEntity
8
0
100
AcDbSpline
70
1064
71
3
72
8
73
4
74
0
42
0.000000001
43
0.0000000001
44
0.0000000001
40
0
40
0
40
0
40
0
40
1
40
1
40
1
40
1
10
107.22992989384369
20
124.13677209229019
30
0
10
107.19292686627236
20
123.79451499461513
30
0
10
107.22067631401622
20
123.44300758113079
30
0
10
107.22067631401622
20
123.10075057167246
30
0
0
SPLINE
5
132
100
AcDbEntity
8
0
100
AcDbSpline
70
1064
71
3
72
8
73
4
74
0
42
0.000000001
43
0.0000000001
44
0.0000000001
40
0
40
0
40
0
40
0
40
1
40
1
40
1
40
1
10
107.22067631401622
20
123.10075057167246
30
0
10
107.42418167391992
20
123.01749887620602
30
0
10
107.61843345399613
20
122.8232448024954
30
0
10
107.57218249246662
20
122.57348953966266
30
0
0
SPLINE
5
133
100
AcDbEntity
8
0
100
AcDbSpline
70
1064
71
3
72
8
73
4
74
0
42
0.000000001
43
0.0000000001
44
0.0000000001
40
0
40
0
40
0
40
0
40
1
40
1
40
1
40
1
10
107.57218249246662
20
122.57348953966266
30
0
10
107.56293455850845
20
122.36998541479286
30
0
10
107.38717864634857
20
122.24973280895608
30
0
10
107.22067631401622
20
122.17573116464879
30
0
0
SPLINE
5
134
100
AcDbEntity
8
0
100
AcDbSpline
70
1064
71
3
72
8
73
4
74
0
42
0.000000001
43
0.0000000001
44
0.0000000001
40
0
40
0
40
0
40
0
40
1
40
1
40
1
40
1
10
107.22067631401622
20
122.17573116464879
30
0
10
107.21142838005804
20
121.87047488912739
30
0
10
107.18367893231419
20
121.57446866476516
30
0
10
107.23917782780188
20
121.27846279326975
30
0
0
SPLINE
5
135
100
AcDbEntity
8
0
100
AcDbSpline
70
1064
71
3
72
8
73
4
74
0
42
0.000000001
43
0.0000000001
44
0.0000000001
40
0
40
0
40
0
40
0
40
1
40
1
40
1
40
1
10
107.23917782780188
20
121.27846279326975
30
0
10
107.63693496778181
20
119.53942635746664
30
0
10
107.94219018470272
20
117.7818898193452
30
0
10
108.33069939072448
20
116.04285408927578
30
0
0
SPLINE
5
136
100
AcDbEntity
8
0
100
AcDbSpline
70
1064
71
3
72
8
73
4
74
0
42
0.000000001
43
0.0000000001
44
0.0000000001
40
0
40
0
40
0
40
0
40
1
40
1
40
1
40
1
10
108.33069939072448
20
116.04285408927578
30
0
10
108.74695804449007
20
114.34081856384302
30
0
10
109.28346806905856
20
112.67578324304692
30
0
10
109.80148222571067
20
111.0107486279845
30
0
0
SPLINE
5
137
100
AcDbEntity
8
0
100
AcDbSpline
70
1064
71
3
72
8
73
4
74
0
42
0.000000001
43
0.0000000001
44
0.0000000001
40
0
40
0
40
0
40
0
40
1
40
1
40
1
40
1
10
109.80148222571067
20
111.0107486279845
30
0
10
111.8365245330092
20
104.58186497538239
30
0
10
114.01031972489625
20
98.208483041202612
30
0
10
116.19336285074147
20
91.835101107022851
30
0
0
SPLINE
5
138
100
AcDbEntity
8
0
100
AcDbSpline
70
1064
71
3
72
8
73
4
74
0
42
0.000000001
43
0.0000000001
44
0.0000000001
40
0
40
0
40
0
40
0
40
1
40
1
40
1
40
1
10
116.19336285074147
20
91.835101107022851
30
0
10
116.2673632600148
20
91.705598979327164
30
0
10
116.24886739209848
20
91.455842657893925
30
0
10
116.42461765838902
20
91.409591696364402
30
0
0
SPLINE
5
139
100
AcDbEntity
8
0
100
AcDbSpline
70
1064
71
3
72
8
73
4
74
0
42
0.000000001
43
0.0000000001
44
0.0000000001
40
0
40
0
40
0
40
0
40
1
40
1
40
1
40
1
10
116.42461765838902
20
91.409591696364402
30
0
10
116.91487672142799
20
91.381842248620572
30
0
10
117.40514143033624
20
91.391090182578722
30
0
10
117.89540049337521
20
91.372591491727746
30
0
0
SPLINE
5
140
100
AcDbEntity
8
0
100
AcDbSpline
70
1064
71
3
72
8
73
4
74
0
42
0.000000001
43
0.0000000001
44
0.0000000001
40
0
40
0
40
0
40
0
40
1
40
1
40
1
40
1
10
117.89540049337521
20
91.372591491727746
30
0
10
118.11740172119528
20
90.928580567283618
30
0
10
118.39490749037236
20
90.503073979559844
30
0
10
118.62616229801989
20
90.049812298222903
30
0
0
SPLINE
5
141
100
AcDbEntity
8
0
100
AcDbSpline
70
1064
71
3
72
8
73
4
74
0
42
0.000000001
43
0.0000000001
44
0.0000000001
40
0
40
0
40
0
40
0
40
1
40
1
40
1
40
1
10
118.62616229801989
20
90.049812298222903
30
0
10
118.48740941343138
20
90.049812298222903
30
0
10
118.35791010867034
20
90.040564364264739
30
0
10
118.22840515803996
20
90.040564364264739
30
0
0
SPLINE
5
142
100
AcDbEntity
8
0
100
AcDbSpline
70
1064
71
3
72
8
73
4
74
0
42
0.000000001
43
0.0000000001
44
0.0000000001
40
0
40
0
40
0
40
0
40
1
40
1
40
1
40
1
10
118.22840515803996
20
90.040564364264739
30
0
10
118.22840515803996
20
89.568803992076781
30
0
10
118.23765873786748
20
89.097043619888836
30
0
10
118.22840515803996
20
88.625283247700878
30
0
0
SPLINE
5
143
100
AcDbEntity
8
0
100
AcDbSpline
70
1064
71
3
72
8
73
4
74
0
42
0.000000001
43
0.0000000001
44
0.0000000001
40
0
40
0
40
0
40
0
40
1
40
1
40
1
40
1
10
118.22840515803996
20
88.625283247700878
30
0
10
118.49666299325887
20
88.273777069250457
30
0
10
118.88517219928063
20
88.005522056966214
30
0
10
119.11642700692821
20
87.635514364730113
30
0
0
SPLINE
5
144
100
AcDbEntity
8
0
100
AcDbSpline
70
1064
71
3
72
8
73
4
74
0
42
0.000000001
43
0.0000000001
44
0.0000000001
40
0
40
0
40
0
40
0
40
1
40
1
40
1
40
1
10
119.11642700692821
20
87.635514364730113
30
0
10
119.13492287484453
20
75.665763262544786
30
0
10
119.11642700692821
20
63.696017806228781
30
0
10
119.12567494088636
20
51.726266704043439
30
0
0
SPLINE
5
145
100
AcDbEntity
8
0
100
AcDbSpline
70
1064
71
3
72
8
73
4
74
0
42
0.000000001
43
0.0000000001
44
0.0000000001
40
0
40
0
40
0
40
0
40
1
40
1
40
1
40
1
10
95.472932085520256
20
51.726266704043439
30
0
10
95.472932085520256
20
53.23404692073165
30
0
10
95.472932085520256
20
54.751080717247362
30
0
10
95.463684151562092
20
56.258860933935573
30
0
0
SPLINE
5
146
100
AcDbEntity
8
0
100
AcDbSpline
70
1064
71
3
72
8
73
4
74
0
42
0.000000001
43
0.0000000001
44
0.0000000001
40
0
40
0
40
0
40
0
40
1
40
1
40
1
40
1
10
95.463684151562092
20
56.258860933935573
30
0
10
95.445182637776398
20
57.572389370547569
30
0
10
94.899421856315087
20
58.913667254903402
30
0
10
93.85414843198734
20
59.755432496392793
30
0
0
SPLINE
5
147
100
AcDbEntity
8
0
100
AcDbSpline
70
1064
71
3
72
8
73
4
74
0
42
0.000000001
43
0.0000000001
44
0.0000000001
40
0
40
0
40
0
40
0
40
1
40
1
40
1
40
1
10
93.85414843198734
20
59.755432496392793
30
0
10
92.725626664428063
20
60.671203793024844
30
0
10
91.236345138590849
20
61.078208866962953
30
0
10
89.802565331175984
20
61.124459828492462
30
0
0
SPLINE
5
148
100
AcDbEntity
8
0
100
AcDbSpline
70
1064
71
3
72
8
73
4
74
0
42
0.000000001
43
0.0000000001
44
0.0000000001
40
0
40
0
40
0
40
0
40
1
40
1
40
1
40
1
10
89.802565331175984
20
61.124459828492462
30
0
10
88.220781882279766
20
61.050459419219116
30
0
10
86.574248781003007
20
60.560200356180154
30
0
10
85.445724190509068
20
59.403926317942364
30
0
0
SPLINE
5
149
100
AcDbEntity
8
0
100
AcDbSpline
70
1064
71
3
72
8
73
4
74
0
42
0.000000001
43
0.0000000001
44
0.0000000001
40
0
40
0
40
0
40
0
40
1
40
1
40
1
40
1
10
85.445724190509068
20
59.403926317942364
30
0
10
84.622457639870689
20
58.580656944369323
30
0
10
84.233948433848923
20
57.396633458387697
30
0
10
84.206198986105093
20
56.249612999977401
30
0
0
SPLINE
5
150
100
AcDbEntity
8
0
100
AcDbSpline
70
1064
71
3
72
8
73
4
74
0
42
0.000000001
43
0.0000000001
44
0.0000000001
40
0
40
0
40
0
40
0
40
1
40
1
40
1
40
1
10
84.206198986105093
20
56.249612999977401
30
0
10
84.196948229212268
20
54.741827137419861
30
0
10
84.206198986105093
20
53.23404692073165
30
0
10
84.196948229212268
20
51.726266704043439
30
0
0
SPLINE
5
151
100
AcDbEntity
8
0
100
AcDbSpline
70
1064
71
3
72
8
73
4
74
0
42
0.000000001
43
0.0000000001
44
0.0000000001
40
0
40
0
40
0
40
0
40
1
40
1
40
1
40
1
10
60.386953798406601
20
51.726266704043439
30
0
10
60.386953798406601
20
59.496428241001389
30
0
10
60.386953798406601
20
67.266589777959339
30
0
10
60.386953798406601
20
75.036751314917296
30
0
0
SPLINE
5
152
100
AcDbEntity
8
0
100
AcDbSpline
70
1064
71
3
72
8
73
4
74
0
42
0.000000001
43
0.0000000001
44
0.0000000001
40
0
40
0
40
0
40
0
40
1
40
1
40
1
40
1
10
60.386953798406601
20
75.036751314917296
30
0
10
60.414704657617769
20
75.166256265547659
30
0
10
60.312951977665918
20
75.379009559409539
30
0
10
60.488705772624783
20
75.425260520939062
30
0
0
SPLINE
5
153
100
AcDbEntity
8
0
100
AcDbSpline
70
1064
71
3
72
8
73
4
74
0
42
0.000000001
43
0.0000000001
44
0.0000000001
40
0
40
0
40
0
40
0
40
1
40
1
40
1
40
1
10
60.488705772624783
20
75.425260520939062
30
0
10
60.460955619147285
20
75.471511482468571
30
0
10
60.414704657617769
20
75.554759825700089
30
0
10
60.396203849565772
20
75.591762853271433
30
0
0
SPLINE
5
154
100
AcDbEntity
8
0
100
AcDbSpline
70
1064
71
3
72
8
73
4
74
0
42
0.000000001
43
0.0000000001
44
0.0000000001
40
0
40
0
40
0
40
0
40
1
40
1
40
1
40
1
10
60.396203849565772
20
75.591762853271433
30
0
10
60.349952888036256
20
79.042083454199144
30
0
10
60.460955619147285
20
82.483156121168662
30
0
10
60.525706682995128
20
85.924228788138194
30
0
0
SPLINE
5
155
100
AcDbEntity
8
0
100
AcDbSpline
70
1064
71
3
72
8
73
4
74
0
42
0.000000001
43
0.0000000001
44
0.0000000001
40
0
40
0
40
0
40
0
40
1
40
1
40
1
40
1
10
60.525706682995128
20
85.924228788138194
30
0
10
60.581207695683815
20
85.924228788138194
30
0
10
60.682959669902004
20
85.924228788138194
30
0
10
60.738461388324353
20
85.924228788138194
30
0
0
SPLINE
5
156
100
AcDbEntity
8
0
100
AcDbSpline
70
1064
71
3
72
8
73
4
74
0
42
0.000000001
43
0.0000000001
44
0.0000000001
40
0
40
0
40
0
40
0
40
1
40
1
40
1
40
1
10
60.738461388324353
20
85.924228788138194
30
0
10
60.766211541801866
20
86.053730915833896
30
0
10
60.821712554490546
20
86.183233043529583
30
0
10
60.867963516020048
20
86.312735171225299
30
0
0
SPLINE
5
157
100
AcDbEntity
8
0
100
AcDbSpline
70
1064
71
3
72
8
73
4
74
0
42
0.000000001
43
0.0000000001
44
0.0000000001
40
0
40
0
40
0
40
0
40
1
40
1
40
1
40
1
10
60.867963516020048
20
86.312735171225299
30
0
10
60.821712554490546
20
86.312735171225299
30
0
10
60.71996058027235
20
86.321985928118124
30
0
10
60.664459567583663
20
86.321985928118124
30
0
0
SPLINE
5
158
100
AcDbEntity
8
0
100
AcDbSpline
70
1064
71
3
72
8
73
4
74
0
42
0.000000001
43
0.0000000001
44
0.0000000001
40
0
40
0
40
0
40
0
40
1
40
1
40
1
40
1
10
60.664459567583663
20
86.321985928118124
30
0
10
60.664459567583663
20
86.368236889647648
30
0
10
60.655209516424492
20
86.460738812706666
30
0
10
60.655209516424492
20
86.506989774236175
30
0
0
SPLINE
5
159
100
AcDbEntity
8
0
100
AcDbSpline
70
1064
71
3
72
8
73
4
74
0
42
0.000000001
43
0.0000000001
44
0.0000000001
40
0
40
0
40
0
40
0
40
1
40
1
40
1
40
1
10
60.655209516424492
20
86.506989774236175
30
0
10
60.590457746842986
20
86.506989774236175
30
0
10
60.451704862254445
20
86.506989774236175
30
0
10
60.386953798406601
20
86.506989774236175
30
0
0
SPLINE
5
160
100
AcDbEntity
8
0
100
AcDbSpline
70
1064
71
3
72
8
73
4
74
0
42
0.000000001
43
0.0000000001
44
0.0000000001
40
0
40
0
40
0
40
0
40
1
40
1
40
1
40
1
10
60.386953798406601
20
86.506989774236175
30
0
10
60.386953798406601
20
86.691993620354225
30
0
10
60.386953798406601
20
86.876997466472261
30
0
10
60.396203849565772
20
87.062001312590311
30
0
0
SPLINE
5
161
100
AcDbEntity
8
0
100
AcDbSpline
70
1064
71
3
72
8
73
4
74
0
42
0.000000001
43
0.0000000001
44
0.0000000001
40
0
40
0
40
0
40
0
40
1
40
1
40
1
40
1
10
60.396203849565772
20
87.062001312590311
30
0
10
60.793962401013033
20
87.4967614801416
30
0
10
61.219471105937806
20
87.922268067865375
30
0
10
61.607978900492242
20
88.366278992309475
30
0
0
SPLINE
5
162
100
AcDbEntity
8
0
100
AcDbSpline
70
1064
71
3
72
8
73
4
74
0
42
0.000000001
43
0.0000000001
44
0.0000000001
40
0
40
0
40
0
40
0
40
1
40
1
40
1
40
1
10
61.607978900492242
20
88.366278992309475
30
0
10
61.64497981086258
20
88.912039773770772
30
0
10
61.5894787981739
20
89.467051312124937
30
0
10
61.5894787981739
20
90.02206285047906
30
0
0
SPLINE
5
163
100
AcDbEntity
8
0
100
AcDbSpline
70
1064
71
3
72
8
73
4
74
0
42
0.000000001
43
0.0000000001
44
0.0000000001
40
0
40
0
40
0
40
0
40
1
40
1
40
1
40
1
10
61.5894787981739
20
90.02206285047906
30
0
10
61.45997596474453
20
90.012812093586234
30
0
10
61.321223080155995
20
90.012812093586234
30
0
10
61.191720246726639
20
90.003561336693394
30
0
0
SPLINE
5
164
100
AcDbEntity
8
0
100
AcDbSpline
70
1064
71
3
72
8
73
4
74
0
42
0.000000001
43
0.0000000001
44
0.0000000001
40
0
40
0
40
0
40
0
40
1
40
1
40
1
40
1
10
61.191720246726639
20
90.003561336693394
30
0
10
61.441475862426188
20
90.447572261137509
30
0
10
61.691230772392096
20
90.900831119539788
30
0
10
61.940986388091659
20
91.344839221049227
30
0
0
SPLINE
5
165
100
AcDbEntity
8
0
100
AcDbSpline
70
1064
71
3
72
8
73
4
74
0
42
0.000000001
43
0.0000000001
44
0.0000000001
40
0
40
0
40
0
40
0
40
1
40
1
40
1
40
1
10
61.940986388091659
20
91.344839221049227
30
0
10
62.375745144175596
20
91.335591287091063
30
0
10
62.81050390025954
20
91.363340734834892
30
0
10
63.236013310917976
20
91.363340734834892
30
0
0
SPLINE
5
166
100
AcDbEntity
8
0
100
AcDbSpline
70
1064
71
3
72
8
73
4
74
0
42
0.000000001
43
0.0000000001
44
0.0000000001
40
0
40
0
40
0
40
0
40
1
40
1
40
1
40
1
10
63.236013310917976
20
91.363340734834892
30
0
10
65.345057438957184
20
97.745973425907508
30
0
10
67.454100155529048
20
104.12860611698011
30
0
10
69.442891501298035
20
110.54823901268939
30
0
0
SPLINE
5
167
100
AcDbEntity
8
0
100
AcDbSpline
70
1064
71
3
72
8
73
4
74
0
42
0.000000001
43
0.0000000001
44
0.0000000001
40
0
40
0
40
0
40
0
40
1
40
1
40
1
40
1
10
69.442891501298035
20
110.54823901268939
30
0
10
70.025653898863354
20
112.39827747386985
30
0
10
70.58991619411033
20
114.25756669194315
30
0
10
71.089426014042118
20
116.1353560123348
30
0
0
SPLINE
5
168
100
AcDbEntity
8
0
100
AcDbSpline
70
1064
71
3
72
8
73
4
74
0
42
0.000000001
43
0.0000000001
44
0.0000000001
40
0
40
0
40
0
40
0
40
1
40
1
40
1
40
1
10
71.089426014042118
20
116.1353560123348
30
0
10
71.542686283911735
20
117.8558916400859
30
0
10
71.773941091559294
20
119.6226782293665
30
0
10
72.079196308480206
20
121.37096471632876
30
0
0
SPLINE
5
169
100
AcDbEntity
8
0
100
AcDbSpline
70
1064
71
3
72
8
73
4
74
0
42
0.000000001
43
0.0000000001
44
0.0000000001
40
0
40
0
40
0
40
0
40
1
40
1
40
1
40
1
10
72.079196308480206
20
121.37096471632876
30
0
10
72.106947167691374
20
121.62071962629467
30
0
10
72.106947167691374
20
121.8797252931534
30
0
10
72.088447065373046
20
122.12948020311929
30
0
0
SPLINE
5
170
100
AcDbEntity
8
0
100
AcDbSpline
70
1064
71
3
72
8
73
4
74
0
42
0.000000001
43
0.0000000001
44
0.0000000001
40
0
40
0
40
0
40
0
40
1
40
1
40
1
40
1
10
72.088447065373046
20
122.12948020311929
30
0
10
71.903443219254996
20
122.20348202385999
30
0
10
71.718439373136945
20
122.36998541479286
30
0
10
71.736939475455287
20
122.59198999484782
30
0
0
SPLINE
5
171
100
AcDbEntity
8
0
100
AcDbSpline
70
1064
71
3
72
8
73
4
74
0
42
0.000000001
43
0.0000000001
44
0.0000000001
40
0
40
0
40
0
40
0
40
1
40
1
40
1
40
1
10
71.736939475455287
20
122.59198999484782
30
0
10
71.727690130029785
20
122.8232448024954
30
0
10
71.931194078466163
20
122.96199768708392
30
0
10
72.097697822265872
20
123.0729998888947
30
0
0
SPLINE
5
172
100
AcDbEntity
8
0
100
AcDbSpline
70
1064
71
3
72
8
73
4
74
0
42
0.000000001
43
0.0000000001
44
0.0000000001
40
0
40
0
40
0
40
0
40
1
40
1
40
1
40
1
10
72.097697822265872
20
123.0729998888947
30
0
10
72.097697822265872
20
123.60951114849709
30
0
10
72.097697822265872
20
124.13677209229019
30
0
10
72.106947167691374
20
124.66403303608328
30
0
0
SPLINE
5
173
100
AcDbEntity
8
0
100
AcDbSpline
70
1064
71
3
72
8
73
4
74
0
42
0.000000001
43
0.0000000001
44
0.0000000001
40
0
40
0
40
0
40
0
40
1
40
1
40
1
40
1
10
72.106947167691374
20
124.66403303608328
30
0
10
72.356702077657275
20
124.65478285259904
30
0
10
72.66195870604551
20
124.68253340305174
30
0
10
72.79146224520855
20
124.41427786146726
30
0
0
SPLINE
5
174
100
AcDbEntity
8
0
100
AcDbSpline
70
1064
71
3
72
8
73
4
74
0
42
0.000000001
43
0.0000000001
44
0.0000000001
40
0
40
0
40
0
40
0
40
1
40
1
40
1
40
1
10
72.79146224520855
20
124.41427786146726
30
0
10
72.8562133090564
20
124.42352800084313
30
0
10
72.985715436752102
20
124.43277822843571
30
0
10
73.050466500599939
20
124.44202841191995
30
0
0
SPLINE
5
175
100
AcDbEntity
8
0
100
AcDbSpline
70
1064
71
3
72
8
73
4
74
0
42
0.000000001
43
0.0000000001
44
0.0000000001
40
0
40
0
40
0
40
0
40
1
40
1
40
1
40
1
10
73.050466500599939
20
124.44202841191995
30
0
10
73.179970039762992
20
124.3310260777841
30
0
10
73.355723128988188
20
124.32177593840822
30
0
10
73.512976115895071
20
124.31252571081563
30
0
0
SPLINE
5
176
100
AcDbEntity
8
0
100
AcDbSpline
70
1064
71
3
72
8
73
4
74
0
42
0.000000001
43
0.0000000001
44
0.0000000001
40
0
40
0
40
0
40
0
40
1
40
1
40
1
40
1
10
73.512976115895071
20
124.31252571081563
30
0
10
73.457475808940046
20
124.05352030860703
30
0
10
73.18921938518848
20
123.94251801857955
30
0
10
72.96721533443376
20
124.09052113076066
30
0
0
SPLINE
5
177
100
AcDbEntity
8
0
100
AcDbSpline
70
1064
71
3
72
8
73
4
74
0
42
0.000000001
43
0.0000000001
44
0.0000000001
40
0
40
0
40
0
40
0
40
1
40
1
40
1
40
1
10
72.96721533443376
20
124.09052113076066
30
0
10
72.837713206738059
20
124.06277053619961
30
0
10
72.717460424467859
20
124.03501994163858
30
0
10
72.587956885304834
20
124.00726934707751
30
0
0
SPLINE
5
178
100
AcDbEntity
8
0
100
AcDbSpline
70
1064
71
3
72
8
73
4
74
0
42
0.000000001
43
0.0000000001
44
0.0000000001
40
0
40
0
40
0
40
0
40
1
40
1
40
1
40
1
10
72.587956885304834
20
124.00726934707751
30
0
10
72.550956680668151
20
124.06277053619961
30
0
10
72.467705514501972
20
124.16452268685121
30
0
10
72.430703898397951
20
124.2200237877566
30
0
0
SPLINE
5
179
100
AcDbEntity
8
0
100
AcDbSpline
70
1064
71
3
72
8
73
4
74
0
42
0.000000001
43
0.0000000001
44
0.0000000001
40
0
40
0
40
0
40
0
40
1
40
1
40
1
40
1
10
72.430703898397951
20
124.2200237877566
30
0
10
72.199449090750406
20
123.94251801857955
30
0
10
72.347452732231773
20
123.55400995937499
30
0
10
72.310451116127751
20
123.22100300107581
30
0
0
SPLINE
5
180
100
AcDbEntity
8
0
100
AcDbSpline
70
1064
71
3
72
8
73
4
74
0
42
0.000000001
43
0.0000000001
44
0.0000000001
40
0
40
0
40
0
40
0
40
1
40
1
40
1
40
1
10
72.310451116127751
20
123.22100300107581
30
0
10
72.282701668383922
20
122.96199768708392
30
0
10
72.680458808363852
20
122.93424700430617
30
0
10
72.67120946293835
20
122.65674123512909
30
0
0
SPLINE
5
181
100
AcDbEntity
8
0
100
AcDbSpline
70
1064
71
3
72
8
73
4
74
0
42
0.000000001
43
0.0000000001
44
0.0000000001
40
0
40
0
40
0
40
0
40
1
40
1
40
1
40
1
10
72.67120946293835
20
122.65674123512909
30
0
10
72.726709769893375
20
122.40698614872977
30
0
10
72.523205821456983
20
122.24048258136349
30
0
10
72.338201975338933
20
122.11098010080096
30
0
0
SPLINE
5
182
100
AcDbEntity
8
0
100
AcDbSpline
70
1064
71
3
72
8
73
4
74
0
42
0.000000001
43
0.0000000001
44
0.0000000001
40
0
40
0
40
0
40
0
40
1
40
1
40
1
40
1
10
72.338201975338933
20
122.11098010080096
30
0
10
72.273450911491082
20
121.77797296606838
30
0
10
72.310451116127751
20
121.43571578017662
30
0
10
72.365952834550114
20
121.11195904947004
30
0
0
SPLINE
5
183
100
AcDbEntity
8
0
100
AcDbSpline
70
1064
71
3
72
8
73
4
74
0
42
0.000000001
43
0.0000000001
44
0.0000000001
40
0
40
0
40
0
40
0
40
1
40
1
40
1
40
1
10
72.365952834550114
20
121.11195904947004
30
0
10
72.634207846834343
20
119.72443020358469
30
0
10
72.819211692952393
20
118.32765130654018
30
0
10
73.124468321340629
20
116.94937251181399
30
0
0
SPLINE
5
184
100
AcDbEntity
8
0
100
AcDbSpline
70
1064
71
3
72
8
73
4
74
0
42
0.000000001
43
0.0000000001
44
0.0000000001
40
0
40
0
40
0
40
0
40
1
40
1
40
1
40
1
10
73.124468321340629
20
116.94937251181399
30
0
10
73.845983603494489
20
113.57305232015963
30
0
10
74.660000808707352
20
110.2152329365573
30
0
10
75.46476725702739
20
106.86666360411414
30
0
0
SPLINE
5
185
100
AcDbEntity
8
0
100
AcDbSpline
70
1064
71
3
72
8
73
4
74
0
42
0.000000001
43
0.0000000001
44
0.0000000001
40
0
40
0
40
0
40
0
40
1
40
1
40
1
40
1
10
75.46476725702739
20
106.86666360411414
30
0
10
76.315784666876937
20
103.26833795023772
30
0
10
77.194554347404988
20
99.679263053254147
30
0
10
78.221323435012408
20
96.136440529267432
30
0
0
SPLINE
5
186
100
AcDbEntity
8
0
100
AcDbSpline
70
1064
71
3
72
8
73
4
74
0
42
0.000000001
43
0.0000000001
44
0.0000000001
40
0
40
0
40
0
40
0
40
1
40
1
40
1
40
1
10
78.221323435012408
20
96.136440529267432
30
0
10
78.924338614847926
20
93.638888606673802
30
0
10
79.664353999320113
20
91.150587440972998
30
0
10
80.450620345321809
20
88.680784966123241
30
0
0
SPLINE
5
187
100
AcDbEntity
8
0
100
AcDbSpline
70
1064
71
3
72
8
73
4
74
0
42
0.000000001
43
0.0000000001
44
0.0000000001
40
0
40
0
40
0
40
0
40
1
40
1
40
1
40
1
10
80.450620345321809
20
88.680784966123241
30
0
10
80.524623577529837
20
89.846309761253849
30
0
10
80.432121654470805
20
91.02108249034265
30
0
10
80.496871306851318
20
92.195858042366098
30
0
0
SPLINE
5
188
100
AcDbEntity
8
0
100
AcDbSpline
70
1064
71
3
72
8
73
4
74
0
42
0.000000001
43
0.0000000001
44
0.0000000001
40
0
40
0
40
0
40
0
40
1
40
1
40
1
40
1
10
80.496871306851318
20
92.195858042366098
30
0
10
80.792878589814052
20
92.186607285473272
30
0
10
81.098133806734978
20
92.186607285473272
30
0
10
81.394141089697712
20
92.177356528580418
30
0
0
SPLINE
5
189
100
AcDbEntity
8
0
100
AcDbSpline
70
1064
71
3
72
8
73
4
74
0
42
0.000000001
43
0.0000000001
44
0.0000000001
40
0
40
0
40
0
40
0
40
1
40
1
40
1
40
1
10
81.394141089697712
20
92.177356528580418
30
0
10
81.394141089697712
20
91.751849940856658
30
0
10
81.384890332804872
20
91.335591287091063
30
0
10
81.394141089697712
20
90.910081876432614
30
0
0
SPLINE
5
190
100
AcDbEntity
8
0
100
AcDbSpline
70
1064
71
3
72
8
73
4
74
0
42
0.000000001
43
0.0000000001
44
0.0000000001
40
0
40
0
40
0
40
0
40
1
40
1
40
1
40
1
10
81.394141089697712
20
90.910081876432614
30
0
10
82.245157088079921
20
90.910081876432614
30
0
10
83.08692515250398
20
90.910081876432614
30
0
10
83.928693216928011
20
90.900831119539788
30
0
0
SPLINE
5
191
100
AcDbEntity
8
0
100
AcDbSpline
70
1064
71
3
72
8
73
4
74
0
42
0.000000001
43
0.0000000001
44
0.0000000001
40
0
40
0
40
0
40
0
40
1
40
1
40
1
40
1
10
83.928693216928011
20
90.900831119539788
30
0
10
83.937943973820836
20
92.713869376083565
30
0
10
83.937943973820836
20
94.517656875734531
30
0
10
83.937943973820836
20
96.330695132278308
30
0
0
SPLINE
5
192
100
AcDbEntity
8
0
100
AcDbSpline
70
1064
71
3
72
8
73
4
74
0
42
0.000000001
43
0.0000000001
44
0.0000000001
40
0
40
0
40
0
40
0
40
1
40
1
40
1
40
1
10
83.937943973820836
20
96.330695132278308
30
0
10
84.224700499890758
20
96.330695132278308
30
0
10
84.511454203026005
20
96.330695132278308
30
0
10
84.798210729095899
20
96.330695132278308
30
0
0
SPLINE
5
193
100
AcDbEntity
8
0
100
AcDbSpline
70
1064
71
3
72
8
73
4
74
0
42
0.000000001
43
0.0000000001
44
0.0000000001
40
0
40
0
40
0
40
0
40
1
40
1
40
1
40
1
10
84.798210729095899
20
96.330695132278308
30
0
10
84.825962999774418
20
96.02543709242272
30
0
10
84.853712447518248
20
95.720181875501822
30
0
10
84.862963204411074
20
95.414923835646249
30
0
0
SPLINE
5
194
100
AcDbEntity
8
0
100
AcDbSpline
70
1064
71
3
72
8
73
4
74
0
42
0.000000001
43
0.0000000001
44
0.0000000001
40
0
40
0
40
0
40
0
40
1
40
1
40
1
40
1
10
84.862963204411074
20
95.414923835646249
30
0
10
85.695480511942293
20
95.40567590168807
30
0
10
86.518747062580672
20
95.40567590168807
30
0
10
87.351264370111878
20
95.40567590168807
30
0
0
SPLINE
5
195
100
AcDbEntity
8
0
100
AcDbSpline
70
1064
71
3
72
8
73
4
74
0
42
0.000000001
43
0.0000000001
44
0.0000000001
40
0
40
0
40
0
40
0
40
1
40
1
40
1
40
1
10
87.351264370111878
20
95.40567590168807
30
0
10
87.351264370111878
20
97.311213258356233
30
0
10
87.342013613219052
20
99.226004194851868
30
0
10
87.351264370111878
20
101.13154437445468
30
0
0
SPLINE
5
196
100
AcDbEntity
8
0
100
AcDbSpline
70
1064
71
3
72
8
73
4
74
0
42
0.000000001
43
0.0000000001
44
0.0000000001
40
0
40
0
40
0
40
0
40
1
40
1
40
1
40
1
10
87.351264370111878
20
101.13154437445468
30
0
10
87.65651958703279
20
101.12229361756185
30
0
10
87.961777626888363
20
101.12229361756185
30
0
10
88.267032843809275
20
101.13154437445468
30
0
0
SPLINE
5
197
100
AcDbEntity
8
0
100
AcDbSpline
70
1064
71
3
72
8
73
4
74
0
42
0.000000001
43
0.0000000001
44
0.0000000001
40
0
40
0
40
0
40
0
40
1
40
1
40
1
40
1
10
88.267032843809275
20
101.13154437445468
30
0
10
88.267032843809275
20
100.79853688685526
30
0
10
88.276283600702101
20
100.45627864236302
30
0
10
88.267032843809275
20
100.12327397769826
30
0
0
SPLINE
5
198
100
AcDbEntity
8
0
100
AcDbSpline
70
1064
71
3
72
8
73
4
74
0
42
0.000000001
43
0.0000000001
44
0.0000000001
40
0
40
0
40
0
40
0
40
1
40
1
40
1
40
1
10
88.267032843809275
20
100.12327397769826
30
0
10
89.044048432918146
20
100.11402322080542
30
0
10
89.821066844961663
20
100.11402322080542
30
0
10
90.598082434070534
20
100.12327397769826
30
0
0
SPLINE
5
199
100
AcDbEntity
8
0
100
AcDbSpline
70
1064
71
3
72
8
73
4
74
0
42
0.000000001
43
0.0000000001
44
0.0000000001
40
0
40
0
40
0
40
0
40
1
40
1
40
1
40
1
10
90.598082434070534
20
100.12327397769826
30
0
10
90.598082434070534
20
100.45627864236302
30
0
10
90.598082434070534
20
100.78928612996243
30
0
10
90.598082434070534
20
101.12229361756185
30
0
0
SPLINE
5
200
100
AcDbEntity
8
0
100
AcDbSpline
70
1064
71
3
72
8
73
4
74
0
42
0.000000001
43
0.0000000001
44
0.0000000001
40
0
40
0
40
0
40
0
40
1
40
1
40
1
40
1
10
90.598082434070534
20
101.12229361756185
30
0
10
90.903337650991432
20
101.12229361756185
30
0
10
91.217843624805184
20
101.14079513134752
30
0
10
91.523101664660771
20
101.10379210377617
30
0
0
SPLINE
5
201
100
AcDbEntity
8
0
100
AcDbSpline
70
1064
71
3
72
8
73
4
74
0
42
0.000000001
43
0.0000000001
44
0.0000000001
40
0
40
0
40
0
40
0
40
1
40
1
40
1
40
1
10
91.523101664660771
20
101.10379210377617
30
0
10
91.504600150875092
20
99.207502681066188
30
0
10
91.523101664660771
20
97.301965324398054
30
0
10
91.513850907767917
20
95.40567590168807
30
0
0
SPLINE
5
202
100
AcDbEntity
8
0
100
AcDbSpline
70
1064
71
3
72
8
73
4
74
0
42
0.000000001
43
0.0000000001
44
0.0000000001
40
0
40
0
40
0
40
0
40
1
40
1
40
1
40
1
10
91.513850907767917
20
95.40567590168807
30
0
10
92.346368215299123
20
95.414923835646249
30
0
10
93.178885522830342
20
95.396425144795245
30
0
10
94.011402830361561
20
95.414923835646249
30
0
0
SPLINE
5
203
100
AcDbEntity
8
0
100
AcDbSpline
70
1064
71
3
72
8
73
4
74
0
42
0.000000001
43
0.0000000001
44
0.0000000001
40
0
40
0
40
0
40
0
40
1
40
1
40
1
40
1
10
94.011402830361561
20
95.414923835646249
30
0
10
94.020653587254372
20
95.720181875501822
30
0
10
94.039152278105405
20
96.02543709242272
30
0
10
94.066904548783896
20
96.330695132278308
30
0
0
SPLINE
5
204
100
AcDbEntity
8
0
100
AcDbSpline
70
1064
71
3
72
8
73
4
74
0
42
0.000000001
43
0.0000000001
44
0.0000000001
40
0
40
0
40
0
40
0
40
1
40
1
40
1
40
1
10
94.066904548783896
20
96.330695132278308
30
0
10
94.35366107485379
20
96.330695132278308
30
0
10
94.64966553488189
20
96.330695132278308
30
0
10
94.93642206095177
20
96.330695132278308
30
0
0
SPLINE
5
205
100
AcDbEntity
8
0
100
AcDbSpline
70
1064
71
3
72
8
73
4
74
0
42
0.000000001
43
0.0000000001
44
0.0000000001
40
0
40
0
40
0
40
0
40
1
40
1
40
1
40
1
10
94.93642206095177
20
96.330695132278308
30
0
10
94.93642206095177
20
94.517656875734531
30
0
10
94.93642206095177
20
92.713869376083565
30
0
10
94.945672817844624
20
90.900831119539788
30
0
0
SPLINE
5
206
100
AcDbEntity
8
0
100
AcDbSpline
70
1064
71
3
72
8
73
4
74
0
42
0.000000001
43
0.0000000001
44
0.0000000001
40
0
40
0
40
0
40
0
40
1
40
1
40
1
40
1
10
94.945672817844624
20
90.900831119539788
30
0
10
95.787440882268669
20
90.910081876432614
30
0
10
96.629206123758024
20
90.910081876432614
30
0
10
97.470974188182083
20
90.900831119539788
30
0
0
SPLINE
5
207
100
AcDbEntity
8
0
100
AcDbSpline
70
1064
71
3
72
8
73
4
74
0
42
0.000000001
43
0.0000000001
44
0.0000000001
40
0
40
0
40
0
40
0
40
1
40
1
40
1
40
1
10
97.470974188182083
20
90.900831119539788
30
0
10
97.470974188182083
20
91.326340530198223
30
0
10
97.470974188182083
20
91.751849940856658
30
0
10
97.470974188182083
20
92.177356528580418
30
0
0
SPLINE
5
208
100
AcDbEntity
8
0
100
AcDbSpline
70
1064
71
3
72
8
73
4
74
0
42
0.000000001
43
0.0000000001
44
0.0000000001
40
0
40
0
40
0
40
0
40
1
40
1
40
1
40
1
10
97.470974188182083
20
92.177356528580418
30
0
10
97.785480161995821
20
92.186607285473272
30
0
10
98.099988958744262
20
92.186607285473272
30
0
10
98.423745689450826
20
92.186607285473272
30
0
0
SPLINE
5
209
100
AcDbEntity
8
0
100
AcDbSpline
70
1064
71
3
72
8
73
4
74
0
42
0.000000001
43
0.0000000001
44
0.0000000001
40
0
40
0
40
0
40
0
40
1
40
1
40
1
40
1
10
98.423745689450826
20
92.186607285473272
30
0
10
98.423745689450826
20
90.503073979559844
30
0
10
98.40524417566516
20
88.819537850711754
30
0
10
98.44224438030183
20
87.145252478756504
30
0
0
SPLINE
5
210
100
AcDbEntity
8
0
100
AcDbSpline
70
1064
71
3
72
8
73
4
74
0
42
0.000000001
43
0.0000000001
44
0.0000000001
40
0
40
0
40
0
40
0
40
1
40
1
40
1
40
1
10
98.44224438030183
20
87.145252478756504
30
0
10
99.080507084822159
20
88.468031672261333
30
0
10
99.783522264657663
20
89.763058595087671
30
0
10
100.3570324938628
20
91.122835170294508
30
0
0
SPLINE
5
211
100
AcDbEntity
8
0
100
AcDbSpline
70
1064
71
3
72
8
73
4
74
0
42
0.000000001
43
0.0000000001
44
0.0000000001
40
0
40
0
40
0
40
0
40
1
40
1
40
1
40
1
10
100.3570324938628
20
91.122835170294508
30
0
10
101.50405859814242
20
94.74891168338209
30
0
10
102.42907782873267
20
98.439737848850172
30
0
10
103.34484912536473
20
102.13056401431828
30
0
0
SPLINE
5
212
100
AcDbEntity
8
0
100
AcDbSpline
70
1064
71
3
72
8
73
4
74
0
42
0.000000001
43
0.0000000001
44
0.0000000001
40
0
40
0
40
0
40
0
40
1
40
1
40
1
40
1
10
103.34484912536473
20
102.13056401431828
30
0
10
104.37161821297217
20
106.45965429577402
30
0
10
105.41688881436525
20
110.79799533412262
30
0
10
106.16615777866492
20
115.18258592253339
30
0
0
SPLINE
5
213
100
AcDbEntity
8
0
100
AcDbSpline
70
1064
71
3
72
8
73
4
74
0
42
0.000000001
43
0.0000000001
44
0.0000000001
40
0
40
0
40
0
40
0
40
1
40
1
40
1
40
1
10
106.16615777866492
20
115.18258592253339
30
0
10
106.48066092954402
20
117.30088010173175
30
0
10
106.64716326187641
20
119.44692443440763
30
0
10
106.99867508619616
20
121.56521861360599
30
0
0
SPLINE
5
214
100
AcDbEntity
8
0
100
AcDbSpline
70
1064
71
3
72
8
73
4
74
0
42
0.000000001
43
0.0000000001
44
0.0000000001
40
0
40
0
40
0
40
0
40
1
40
1
40
1
40
1
10
106.99867508619616
20
121.56521861360599
30
0
10
107.01717095411249
20
121.7687229149092
30
0
10
107.00792302015432
20
121.97222721621243
30
0
10
106.99867508619616
20
122.17573116464879
30
0
0
SPLINE
5
215
100
AcDbEntity
8
0
100
AcDbSpline
70
1064
71
3
72
8
73
4
74
0
42
0.000000001
43
0.0000000001
44
0.0000000001
40
0
40
0
40
0
40
0
40
1
40
1
40
1
40
1
10
106.99867508619616
20
122.17573116464879
30
0
10
106.79516972629243
20
122.25898303654866
30
0
10
106.60091230034688
20
122.44398688266671
30
0
10
106.64716326187641
20
122.67524169031427
30
0
0
SPLINE
5
216
100
AcDbEntity
8
0
100
AcDbSpline
70
1064
71
3
72
8
73
4
74
0
42
0.000000001
43
0.0000000001
44
0.0000000001
40
0
40
0
40
0
40
0
40
1
40
1
40
1
40
1
10
106.64716326187641
20
122.67524169031427
30
0
10
106.64716326187641
20
122.87874599161748
30
0
10
106.83216710799444
20
123.00824864861343
30
0
10
106.98942150636864
20
123.09150034407986
30
0
0
SPLINE
5
217
100
AcDbEntity
8
0
100
AcDbSpline
70
1064
71
3
72
8
73
4
74
0
42
0.000000001
43
0.0000000001
44
0.0000000001
40
0
40
0
40
0
40
0
40
1
40
1
40
1
40
1
10
106.98942150636864
20
123.09150034407986
30
0
10
107.02642453393999
20
123.62801142724884
30
0
10
106.98017357241048
20
124.17377282622711
30
0
10
107.01717095411249
20
124.71028399761279
30
0
0
SPLINE
5
218
100
AcDbEntity
8
0
100
AcDbSpline
70
1064
71
3
72
8
73
4
74
0
42
0.000000001
43
0.0000000001
44
0.0000000001
40
0
40
0
40
0
40
0
40
1
40
1
40
1
40
1
10
89.182801317506659
20
98.948498425674813
30
0
10
89.70081265122414
20
99.170502476429533
30
0
10
90.320576664893451
20
98.615490938075396
30
0
10
90.117071304989736
20
98.078980913506925
30
0
0
SPLINE
5
219
100
AcDbEntity
8
0
100
AcDbSpline
70
1064
71
3
72
8
73
4
74
0
42
0.000000001
43
0.0000000001
44
0.0000000001
40
0
40
0
40
0
40
0
40
1
40
1
40
1
40
1
10
90.117071304989736
20
98.078980913506925
30
0
10
89.969067663508355
20
97.551718822896618
30
0
10
89.173553383548509
20
97.422216695200916
30
0
10
88.859044586800096
20
97.875475553603195
30
0
0
SPLINE
5
220
100
AcDbEntity
8
0
100
AcDbSpline
70
1064
71
3
72
8
73
4
74
0
42
0.000000001
43
0.0000000001
44
0.0000000001
40
0
40
0
40
0
40
0
40
1
40
1
40
1
40
1
10
88.859044586800096
20
97.875475553603195
30
0
10
88.572290883664834
20
98.226984554988292
30
0
10
88.757294729782899
20
98.818996297979112
30
0
10
89.182801317506659
20
98.948498425674813
30
0
0
SPLINE
5
221
100
AcDbEntity
8
0
100
AcDbSpline
70
1064
71
3
72
8
73
4
74
0
42
0.000000001
43
0.0000000001
44
0.0000000001
40
0
40
0
40
0
40
0
40
1
40
1
40
1
40
1
10
88.766542663741063
20
95.942185926256542
30
0
10
88.757294729782899
20
96.321444375385482
30
0
10
89.044048432918146
20
96.626699592306394
30
0
10
89.340055715880879
20
96.82095419531727
30
0
0
SPLINE
5
222
100
AcDbEntity
8
0
100
AcDbSpline
70
1064
71
3
72
8
73
4
74
0
42
0.000000001
43
0.0000000001
44
0.0000000001
40
0
40
0
40
0
40
0
40
1
40
1
40
1
40
1
10
89.340055715880879
20
96.82095419531727
30
0
10
89.580561280421279
20
96.904205361483449
30
0
10
89.747063612753649
20
96.64520110609206
30
0
10
89.895067254235016
20
96.506448221503533
30
0
0
SPLINE
5
223
100
AcDbEntity
8
0
100
AcDbSpline
70
1064
71
3
72
8
73
4
74
0
42
0.000000001
43
0.0000000001
44
0.0000000001
40
0
40
0
40
0
40
0
40
1
40
1
40
1
40
1
10
89.895067254235016
20
96.506448221503533
30
0
10
90.18182378030491
20
96.191942247689767
30
0
10
90.098572614138732
20
95.766432837031346
30
0
10
90.107820548096896
20
95.387174387902405
30
0
0
SPLINE
5
224
100
AcDbEntity
8
0
100
AcDbSpline
70
1064
71
3
72
8
73
4
74
0
42
0.000000001
43
0.0000000001
44
0.0000000001
40
0
40
0
40
0
40
0
40
1
40
1
40
1
40
1
10
90.107820548096896
20
95.387174387902405
30
0
10
90.117071304989736
20
94.74891168338209
30
0
10
90.089321857245892
20
94.119896912819911
30
0
10
90.126322061882576
20
93.481634208299596
30
0
0
SPLINE
5
225
100
AcDbEntity
8
0
100
AcDbSpline
70
1064
71
3
72
8
73
4
74
0
42
0.000000001
43
0.0000000001
44
0.0000000001
40
0
40
0
40
0
40
0
40
1
40
1
40
1
40
1
10
90.126322061882576
20
93.481634208299596
30
0
10
89.663812446587457
20
93.453884760555752
30
0
10
89.210553588185178
20
93.463135517448592
30
0
10
88.757294729782899
20
93.481634208299596
30
0
0
SPLINE
5
226
100
AcDbEntity
8
0
100
AcDbSpline
70
1064
71
3
72
8
73
4
74
0
42
0.000000001
43
0.0000000001
44
0.0000000001
40
0
40
0
40
0
40
0
40
1
40
1
40
1
40
1
10
88.757294729782899
20
93.481634208299596
30
0
10
88.775793420633903
20
94.304900758937976
30
0
10
88.757294729782899
20
95.118919375618162
30
0
10
88.766542663741063
20
95.942185926256542
30
0
0
SPLINE
5
227
100
AcDbEntity
8
0
100
AcDbSpline
70
1064
71
3
72
8
73
4
74
0
42
0.000000001
43
0.0000000001
44
0.0000000001
40
0
40
0
40
0
40
0
40
1
40
1
40
1
40
1
10
85.787982435001311
20
94.119896912819911
30
0
10
86.268990741147448
20
94.323402272723641
30
0
10
86.870253241031094
20
93.860892657428522
30
0
10
86.740751113335392
20
93.342881323711069
30
0
0
SPLINE
5
228
100
AcDbEntity
8
0
100
AcDbSpline
70
1064
71
3
72
8
73
4
74
0
42
0.000000001
43
0.0000000001
44
0.0000000001
40
0
40
0
40
0
40
0
40
1
40
1
40
1
40
1
10
86.740751113335392
20
93.342881323711069
30
0
10
86.676001460954879
20
92.797120542249758
30
0
10
85.898983048911347
20
92.565865734602198
30
0
10
85.538226113568086
20
92.972873631474968
30
0
0
SPLINE
5
229
100
AcDbEntity
8
0
100
AcDbSpline
70
1064
71
3
72
8
73
4
74
0
42
0.000000001
43
0.0000000001
44
0.0000000001
40
0
40
0
40
0
40
0
40
1
40
1
40
1
40
1
10
85.538226113568086
20
92.972873631474968
30
0
10
85.177469178224811
20
93.305881119074385
30
0
10
85.316222062813381
20
93.97189609427322
30
0
10
85.787982435001311
20
94.119896912819911
30
0
0
SPLINE
5
230
100
AcDbEntity
8
0
100
AcDbSpline
70
1064
71
3
72
8
73
4
74
0
42
0.000000001
43
0.0000000001
44
0.0000000001
40
0
40
0
40
0
40
0
40
1
40
1
40
1
40
1
10
92.438870138358155
20
94.110648978861761
30
0
10
92.947630715182783
20
94.34190378650932
30
0
10
93.558143971959268
20
93.796140182113348
30
0
10
93.373140125841232
20
93.259630157544876
30
0
0
SPLINE
5
231
100
AcDbEntity
8
0
100
AcDbSpline
70
1064
71
3
72
8
73
4
74
0
42
0.000000001
43
0.0000000001
44
0.0000000001
40
0
40
0
40
0
40
0
40
1
40
1
40
1
40
1
10
93.373140125841232
20
93.259630157544876
30
0
10
93.234387241252676
20
92.741618823827409
30
0
10
92.475870342994838
20
92.584367248387878
30
0
10
92.142862855395421
20
93.009873836111652
30
0
0
SPLINE
5
232
100
AcDbEntity
8
0
100
AcDbSpline
70
1064
71
3
72
8
73
4
74
0
42
0.000000001
43
0.0000000001
44
0.0000000001
40
0
40
0
40
0
40
0
40
1
40
1
40
1
40
1
10
92.142862855395421
20
93.009873836111652
30
0
10
91.81910612468883
20
93.352132080603894
30
0
10
91.985611279955876
20
93.981144028231398
30
0
10
92.438870138358155
20
94.110648978861761
30
0
0
SPLINE
5
233
100
AcDbEntity
8
0
100
AcDbSpline
70
1064
71
3
72
8
73
4
74
0
42
0.000000001
43
0.0000000001
44
0.0000000001
40
0
40
0
40
0
40
0
40
1
40
1
40
1
40
1
10
85.510476665824228
20
90.854580158010265
30
0
10
85.473476461187573
20
91.298588259519718
30
0
10
85.797233191894151
20
91.714846913285314
30
0
10
86.194990331874095
20
91.86285055476668
30
0
0
SPLINE
5
234
100
AcDbEntity
8
0
100
AcDbSpline
70
1064
71
3
72
8
73
4
74
0
42
0.000000001
43
0.0000000001
44
0.0000000001
40
0
40
0
40
0
40
0
40
1
40
1
40
1
40
1
10
86.194990331874095
20
91.86285055476668
30
0
10
86.546496510324502
20
91.705598979327164
30
0
10
86.861005307072915
20
91.354089977942067
30
0
10
86.85175455018009
20
90.947082081069297
30
0
0
SPLINE
5
235
100
AcDbEntity
8
0
100
AcDbSpline
70
1064
71
3
72
8
73
4
74
0
42
0.000000001
43
0.0000000001
44
0.0000000001
40
0
40
0
40
0
40
0
40
1
40
1
40
1
40
1
10
86.85175455018009
20
90.947082081069297
30
0
10
86.861005307072915
20
89.430051107488254
30
0
10
86.85175455018009
20
87.90376937701437
30
0
10
86.85175455018009
20
86.377487646540487
30
0
0
SPLINE
5
236
100
AcDbEntity
8
0
100
AcDbSpline
70
1064
71
3
72
8
73
4
74
0
42
0.000000001
43
0.0000000001
44
0.0000000001
40
0
40
0
40
0
40
0
40
1
40
1
40
1
40
1
10
86.85175455018009
20
86.377487646540487
30
0
10
86.407743625735975
20
86.377487646540487
30
0
10
85.963735524226536
20
86.386738403433313
30
0
10
85.519727422717082
20
86.377487646540487
30
0
0
SPLINE
5
237
100
AcDbEntity
8
0
100
AcDbSpline
70
1064
71
3
72
8
73
4
74
0
42
0.000000001
43
0.0000000001
44
0.0000000001
40
0
40
0
40
0
40
0
40
1
40
1
40
1
40
1
10
85.519727422717082
20
86.377487646540487
30
0
10
85.510476665824228
20
87.876017106335837
30
0
10
85.519727422717082
20
89.365298632173051
30
0
10
85.510476665824228
20
90.854580158010265
30
0
0
SPLINE
5
238
100
AcDbEntity
8
0
100
AcDbSpline
70
1064
71
3
72
8
73
4
74
0
42
0.000000001
43
0.0000000001
44
0.0000000001
40
0
40
0
40
0
40
0
40
1
40
1
40
1
40
1
10
88.766542663741063
20
90.863830914903104
30
0
10
88.720291702211554
20
91.298588259519718
30
0
10
89.044048432918146
20
91.705598979327164
30
0
10
89.441808395832737
20
91.86285055476668
30
0
0
SPLINE
5
239
100
AcDbEntity
8
0
100
AcDbSpline
70
1064
71
3
72
8
73
4
74
0
42
0.000000001
43
0.0000000001
44
0.0000000001
40
0
40
0
40
0
40
0
40
1
40
1
40
1
40
1
10
89.441808395832737
20
91.86285055476668
30
0
10
89.821066844961663
20
91.705598979327164
30
0
10
90.144823575668227
20
91.298588259519718
30
0
10
90.107820548096896
20
90.863830914903104
30
0
0
SPLINE
5
240
100
AcDbEntity
8
0
100
AcDbSpline
70
1064
71
3
72
8
73
4
74
0
42
0.000000001
43
0.0000000001
44
0.0000000001
40
0
40
0
40
0
40
0
40
1
40
1
40
1
40
1
10
90.107820548096896
20
90.863830914903104
30
0
10
90.107820548096896
20
89.365298632173051
30
0
10
90.107820548096896
20
87.876017106335837
30
0
10
90.107820548096896
20
86.377487646540487
30
0
0
SPLINE
5
241
100
AcDbEntity
8
0
100
AcDbSpline
70
1064
71
3
72
8
73
4
74
0
42
0.000000001
43
0.0000000001
44
0.0000000001
40
0
40
0
40
0
40
0
40
1
40
1
40
1
40
1
10
90.107820548096896
20
86.377487646540487
30
0
10
89.663812446587457
20
86.386738403433313
30
0
10
89.210553588185178
20
86.377487646540487
30
0
10
88.757294729782899
20
86.386738403433313
30
0
0
SPLINE
5
242
100
AcDbEntity
8
0
100
AcDbSpline
70
1064
71
3
72
8
73
4
74
0
42
0.000000001
43
0.0000000001
44
0.0000000001
40
0
40
0
40
0
40
0
40
1
40
1
40
1
40
1
10
88.757294729782899
20
86.386738403433313
30
0
10
88.766542663741063
20
87.876017106335837
30
0
10
88.757294729782899
20
89.365298632173051
30
0
10
88.766542663741063
20
90.863830914903104
30
0
0
SPLINE
5
243
100
AcDbEntity
8
0
100
AcDbSpline
70
1064
71
3
72
8
73
4
74
0
42
0.000000001
43
0.0000000001
44
0.0000000001
40
0
40
0
40
0
40
0
40
1
40
1
40
1
40
1
10
92.013360727699705
20
90.947082081069297
30
0
10
92.00410997080688
20
91.372591491727746
30
0
10
92.346368215299123
20
91.687097465541484
30
0
10
92.67937570289854
20
91.890602825445185
30
0
0
SPLINE
5
244
100
AcDbEntity
8
0
100
AcDbSpline
70
1064
71
3
72
8
73
4
74
0
42
0.000000001
43
0.0000000001
44
0.0000000001
40
0
40
0
40
0
40
0
40
1
40
1
40
1
40
1
10
92.67937570289854
20
91.890602825445185
30
0
10
93.021631124456135
20
91.69634822243431
30
0
10
93.373140125841232
20
91.372591491727746
30
0
10
93.354638612055552
20
90.947082081069297
30
0
0
SPLINE
5
245
100
AcDbEntity
8
0
100
AcDbSpline
70
1064
71
3
72
8
73
4
74
0
42
0.000000001
43
0.0000000001
44
0.0000000001
40
0
40
0
40
0
40
0
40
1
40
1
40
1
40
1
10
93.354638612055552
20
90.947082081069297
30
0
10
93.354638612055552
20
89.4208003505954
30
0
10
93.354638612055552
20
87.90376937701437
30
0
10
93.354638612055552
20
86.377487646540487
30
0
0
SPLINE
5
246
100
AcDbEntity
8
0
100
AcDbSpline
70
1064
71
3
72
8
73
4
74
0
42
0.000000001
43
0.0000000001
44
0.0000000001
40
0
40
0
40
0
40
0
40
1
40
1
40
1
40
1
10
93.354638612055552
20
86.377487646540487
30
0
10
92.910630510546099
20
86.386738403433313
30
0
10
92.45737165214382
20
86.386738403433313
30
0
10
92.013360727699705
20
86.377487646540487
30
0
0
SPLINE
5
247
100
AcDbEntity
8
0
100
AcDbSpline
70
1064
71
3
72
8
73
4
74
0
42
0.000000001
43
0.0000000001
44
0.0000000001
40
0
40
0
40
0
40
0
40
1
40
1
40
1
40
1
10
92.013360727699705
20
86.377487646540487
30
0
10
92.013360727699705
20
87.90376937701437
30
0
10
92.00410997080688
20
89.430051107488254
30
0
10
92.013360727699705
20
90.947082081069297
30
0
0
SPLINE
5
248
100
AcDbEntity
8
0
100
AcDbSpline
70
1064
71
3
72
8
73
4
74
0
42
0.000000001
43
0.0000000001
44
0.0000000001
40
0
40
0
40
0
40
0
40
1
40
1
40
1
40
1
10
70.127406578815211
20
90.87308167179593
30
0
10
70.69166746259485
20
90.87308167179593
30
0
10
71.265180514734666
20
90.882329605754109
30
0
10
71.829441398514305
20
90.891580362646948
30
0
0
SPLINE
5
249
100
AcDbEntity
8
0
100
AcDbSpline
70
1064
71
3
72
8
73
4
74
0
42
0.000000001
43
0.0000000001
44
0.0000000001
40
0
40
0
40
0
40
0
40
1
40
1
40
1
40
1
10
71.829441398514305
20
90.891580362646948
30
0
10
71.847941500832647
20
90.355070338078477
30
0
10
71.857192257725472
20
89.80930955661718
30
0
10
71.847941500832647
20
89.263545952221207
30
0
0
SPLINE
5
250
100
AcDbEntity
8
0
100
AcDbSpline
70
1064
71
3
72
8
73
4
74
0
42
0.000000001
43
0.0000000001
44
0.0000000001
40
0
40
0
40
0
40
0
40
1
40
1
40
1
40
1
10
71.847941500832647
20
89.263545952221207
30
0
10
71.283680617053008
20
89.263545952221207
30
0
10
70.71016897638053
20
89.245047261370189
30
0
10
70.145906681133553
20
89.235796504477364
30
0
0
SPLINE
5
251
100
AcDbEntity
8
0
100
AcDbSpline
70
1064
71
3
72
8
73
4
74
0
42
0.000000001
43
0.0000000001
44
0.0000000001
40
0
40
0
40
0
40
0
40
1
40
1
40
1
40
1
10
70.145906681133553
20
89.235796504477364
30
0
10
70.136655924240728
20
89.781557285938675
30
0
10
70.118155821922386
20
90.327318067399972
30
0
10
70.127406578815211
20
90.87308167179593
30
0
0
SPLINE
5
252
100
AcDbEntity
8
0
100
AcDbSpline
70
1064
71
3
72
8
73
4
74
0
42
0.000000001
43
0.0000000001
44
0.0000000001
40
0
40
0
40
0
40
0
40
1
40
1
40
1
40
1
10
106.83216710799444
20
90.604823836577026
30
0
10
107.40568016013425
20
90.58632514572605
30
0
10
107.97919321227405
20
90.58632514572605
30
0
10
108.54345268458637
20
90.558572875047531
30
0
0
SPLINE
5
253
100
AcDbEntity
8
0
100
AcDbSpline
70
1064
71
3
72
8
73
4
74
0
42
0.000000001
43
0.0000000001
44
0.0000000001
40
0
40
0
40
0
40
0
40
1
40
1
40
1
40
1
10
108.54345268458637
20
90.558572875047531
30
0
10
108.53420475062819
20
90.02206285047906
30
0
10
108.52495681667003
20
89.485552825910588
30
0
10
108.51570323684254
20
88.949039978407455
30
0
0
SPLINE
5
254
100
AcDbEntity
8
0
100
AcDbSpline
70
1064
71
3
72
8
73
4
74
0
42
0.000000001
43
0.0000000001
44
0.0000000001
40
0
40
0
40
0
40
0
40
1
40
1
40
1
40
1
10
108.51570323684254
20
88.949039978407455
30
0
10
107.94219018470272
20
88.958290735300295
30
0
10
107.36868277843223
20
88.967541492193121
30
0
10
106.79516972629243
20
88.976792249085975
30
0
0
SPLINE
5
255
100
AcDbEntity
8
0
100
AcDbSpline
70
1064
71
3
72
8
73
4
74
0
42
0.000000001
43
0.0000000001
44
0.0000000001
40
0
40
0
40
0
40
0
40
1
40
1
40
1
40
1
10
106.79516972629243
20
88.976792249085975
30
0
10
106.80441766025061
20
89.522553030547272
30
0
10
106.80441766025061
20
90.059063055115729
30
0
10
106.83216710799444
20
90.604823836577026
30
0
0
SPLINE
5
256
100
AcDbEntity
8
0
100
AcDbSpline
70
1064
71
3
72
8
73
4
74
0
42
0.000000001
43
0.0000000001
44
0.0000000001
40
0
40
0
40
0
40
0
40
1
40
1
40
1
40
1
10
82.2636586018656
20
88.828788607604594
30
0
10
82.245157088079921
20
89.263545952221207
30
0
10
82.587415332572192
20
89.60580419671345
30
0
10
82.957423024808264
20
89.781557285938675
30
0
0
SPLINE
5
257
100
AcDbEntity
8
0
100
AcDbSpline
70
1064
71
3
72
8
73
4
74
0
42
0.000000001
43
0.0000000001
44
0.0000000001
40
0
40
0
40
0
40
0
40
1
40
1
40
1
40
1
10
82.957423024808264
20
89.781557285938675
30
0
10
83.253430307771026
20
89.587302682927799
30
0
10
83.586434972435768
20
89.309796913750716
30
0
10
83.595685729328594
20
88.921290530663626
30
0
0
SPLINE
5
258
100
AcDbEntity
8
0
100
AcDbSpline
70
1064
71
3
72
8
73
4
74
0
42
0.000000001
43
0.0000000001
44
0.0000000001
40
0
40
0
40
0
40
0
40
1
40
1
40
1
40
1
10
83.595685729328594
20
88.921290530663626
30
0
10
83.604936486221419
20
88.070271709346741
30
0
10
83.595685729328594
20
87.228503644922682
30
0
10
83.604936486221419
20
86.377487646540487
30
0
0
SPLINE
5
259
100
AcDbEntity
8
0
100
AcDbSpline
70
1064
71
3
72
8
73
4
74
0
42
0.000000001
43
0.0000000001
44
0.0000000001
40
0
40
0
40
0
40
0
40
1
40
1
40
1
40
1
10
83.604936486221419
20
86.377487646540487
30
0
10
83.15167762781914
20
86.386738403433313
30
0
10
82.707666703375054
20
86.386738403433313
30
0
10
82.2636586018656
20
86.377487646540487
30
0
0
SPLINE
5
260
100
AcDbEntity
8
0
100
AcDbSpline
70
1064
71
3
72
8
73
4
74
0
42
0.000000001
43
0.0000000001
44
0.0000000001
40
0
40
0
40
0
40
0
40
1
40
1
40
1
40
1
10
82.2636586018656
20
86.377487646540487
30
0
10
82.254407844972775
20
87.191503440286027
30
0
10
82.2636586018656
20
88.014769990924407
30
0
10
82.2636586018656
20
88.828788607604594
30
0
0
SPLINE
5
261
100
AcDbEntity
8
0
100
AcDbSpline
70
1064
71
3
72
8
73
4
74
0
42
0.000000001
43
0.0000000001
44
0.0000000001
40
0
40
0
40
0
40
0
40
1
40
1
40
1
40
1
10
95.269429548551187
20
88.921290530663626
30
0
10
95.278680305444041
20
89.309796913750716
30
0
10
95.611684970108797
20
89.578054748969606
30
0
10
95.916943009964371
20
89.781557285938675
30
0
0
SPLINE
5
262
100
AcDbEntity
8
0
100
AcDbSpline
70
1064
71
3
72
8
73
4
74
0
42
0.000000001
43
0.0000000001
44
0.0000000001
40
0
40
0
40
0
40
0
40
1
40
1
40
1
40
1
10
95.916943009964371
20
89.781557285938675
30
0
10
96.296201459093282
20
89.624305710499129
30
0
10
96.629206123758024
20
89.254298018263043
30
0
10
96.601456676014195
20
88.819537850711754
30
0
0
SPLINE
5
263
100
AcDbEntity
8
0
100
AcDbSpline
70
1064
71
3
72
8
73
4
74
0
42
0.000000001
43
0.0000000001
44
0.0000000001
40
0
40
0
40
0
40
0
40
1
40
1
40
1
40
1
10
96.601456676014195
20
88.819537850711754
30
0
10
96.601456676014195
20
88.005522056966214
30
0
10
96.610707432907049
20
87.191503440286027
30
0
10
96.601456676014195
20
86.377487646540487
30
0
0
SPLINE
5
264
100
AcDbEntity
8
0
100
AcDbSpline
70
1064
71
3
72
8
73
4
74
0
42
0.000000001
43
0.0000000001
44
0.0000000001
40
0
40
0
40
0
40
0
40
1
40
1
40
1
40
1
10
96.601456676014195
20
86.377487646540487
30
0
10
96.15744857450477
20
86.386738403433313
30
0
10
95.713437650060641
20
86.386738403433313
30
0
10
95.269429548551187
20
86.377487646540487
30
0
0
SPLINE
5
265
100
AcDbEntity
8
0
100
AcDbSpline
70
1064
71
3
72
8
73
4
74
0
42
0.000000001
43
0.0000000001
44
0.0000000001
40
0
40
0
40
0
40
0
40
1
40
1
40
1
40
1
10
95.269429548551187
20
86.377487646540487
30
0
10
95.269429548551187
20
87.228503644922682
30
0
10
95.269429548551187
20
88.070271709346741
30
0
10
95.269429548551187
20
88.921290530663626
30
0
0
SPLINE
5
266
100
AcDbEntity
8
0
100
AcDbSpline
70
1064
71
3
72
8
73
4
74
0
42
0.000000001
43
0.0000000001
44
0.0000000001
40
0
40
0
40
0
40
0
40
1
40
1
40
1
40
1
10
60.775461592961037
20
86.479240326492345
30
0
10
60.830963311383371
20
86.432989364962822
30
0
10
60.830963311383371
20
86.432989364962822
30
0
10
60.775461592961037
20
86.479240326492345
30
0
0
SPLINE
5
267
100
AcDbEntity
8
0
100
AcDbSpline
70
1064
71
3
72
8
73
4
74
0
42
0.000000001
43
0.0000000001
44
0.0000000001
40
0
40
0
40
0
40
0
40
1
40
1
40
1
40
1
10
66.510580822620469
20
83.278673224063198
30
0
10
66.482829963409301
20
83.685681120935968
30
0
10
66.797337348690377
20
84.02793936542821
30
0
10
67.148844938608136
20
84.194441697760595
30
0
0
SPLINE
5
268
100
AcDbEntity
8
0
100
AcDbSpline
70
1064
71
3
72
8
73
4
74
0
42
0.000000001
43
0.0000000001
44
0.0000000001
40
0
40
0
40
0
40
0
40
1
40
1
40
1
40
1
10
67.148844938608136
20
84.194441697760595
30
0
10
67.53735273316255
20
84.083438260915898
30
0
10
67.861109463869141
20
83.685681120935968
30
0
10
67.842609361550799
20
83.278673224063198
30
0
0
SPLINE
5
269
100
AcDbEntity
8
0
100
AcDbSpline
70
1064
71
3
72
8
73
4
74
0
42
0.000000001
43
0.0000000001
44
0.0000000001
40
0
40
0
40
0
40
0
40
1
40
1
40
1
40
1
10
67.842609361550799
20
83.278673224063198
30
0
10
67.842609361550799
20
82.520156325805345
30
0
10
67.851858706976302
20
81.770890184440333
30
0
10
67.833358604657974
20
81.012376109117127
30
0
0
SPLINE
5
270
100
AcDbEntity
8
0
100
AcDbSpline
70
1064
71
3
72
8
73
4
74
0
42
0.000000001
43
0.0000000001
44
0.0000000001
40
0
40
0
40
0
40
0
40
1
40
1
40
1
40
1
10
67.833358604657974
20
81.012376109117127
30
0
10
67.398599848574023
20
81.012376109117127
30
0
10
66.963841092490085
20
81.021626866009967
30
0
10
66.52908092493881
20
81.003125352224288
30
0
0
SPLINE
5
271
100
AcDbEntity
8
0
100
AcDbSpline
70
1064
71
3
72
8
73
4
74
0
42
0.000000001
43
0.0000000001
44
0.0000000001
40
0
40
0
40
0
40
0
40
1
40
1
40
1
40
1
10
66.52908092493881
20
81.003125352224288
30
0
10
66.492080720302141
20
81.76164225048214
30
0
10
66.519831579513308
20
82.520156325805345
30
0
10
66.510580822620469
20
83.278673224063198
30
0
0
SPLINE
5
272
100
AcDbEntity
8
0
100
AcDbSpline
70
1064
71
3
72
8
73
4
74
0
42
0.000000001
43
0.0000000001
44
0.0000000001
40
0
40
0
40
0
40
0
40
1
40
1
40
1
40
1
10
76.519288615313314
20
84.148190736231072
30
0
10
76.630292052158012
20
84.249943416182944
30
0
10
76.750543422960874
20
84.157441493123912
30
0
10
76.843045346019906
20
84.083438260915898
30
0
0
SPLINE
5
273
100
AcDbEntity
8
0
100
AcDbSpline
70
1064
71
3
72
8
73
4
74
0
42
0.000000001
43
0.0000000001
44
0.0000000001
40
0
40
0
40
0
40
0
40
1
40
1
40
1
40
1
10
76.843045346019906
20
84.083438260915898
30
0
10
77.10205242434597
20
83.898434414797848
30
0
10
77.32405647510069
20
83.602429954769775
30
0
10
77.287056270464007
20
83.269422467170358
30
0
0
SPLINE
5
274
100
AcDbEntity
8
0
100
AcDbSpline
70
1064
71
3
72
8
73
4
74
0
42
0.000000001
43
0.0000000001
44
0.0000000001
40
0
40
0
40
0
40
0
40
1
40
1
40
1
40
1
10
77.287056270464007
20
83.269422467170358
30
0
10
77.277805513571167
20
82.520156325805345
30
0
10
77.305554961315025
20
81.76164225048214
30
0
10
77.277805513571167
20
81.012376109117127
30
0
0
SPLINE
5
275
100
AcDbEntity
8
0
100
AcDbSpline
70
1064
71
3
72
8
73
4
74
0
42
0.000000001
43
0.0000000001
44
0.0000000001
40
0
40
0
40
0
40
0
40
1
40
1
40
1
40
1
10
77.277805513571167
20
81.012376109117127
30
0
10
76.833794589127066
20
81.021626866009967
30
0
10
76.389786487617627
20
81.003125352224288
30
0
10
75.955027731533676
20
81.021626866009967
30
0
0
SPLINE
5
276
100
AcDbEntity
8
0
100
AcDbSpline
70
1064
71
3
72
8
73
4
74
0
42
0.000000001
43
0.0000000001
44
0.0000000001
40
0
40
0
40
0
40
0
40
1
40
1
40
1
40
1
10
75.955027731533676
20
81.021626866009967
30
0
10
75.973527833852017
20
81.798642455118824
30
0
10
75.945776974640836
20
82.57565804422768
30
0
10
75.964277076959178
20
83.352673633336551
30
0
0
SPLINE
5
277
100
AcDbEntity
8
0
100
AcDbSpline
70
1064
71
3
72
8
73
4
74
0
42
0.000000001
43
0.0000000001
44
0.0000000001
40
0
40
0
40
0
40
0
40
1
40
1
40
1
40
1
10
75.964277076959178
20
83.352673633336551
30
0
10
75.955027731533676
20
83.704182634721633
30
0
10
76.232533500710744
20
83.99093633785688
30
0
10
76.519288615313314
20
84.148190736231072
30
0
0
SPLINE
5
278
100
AcDbEntity
8
0
100
AcDbSpline
70
1064
71
3
72
8
73
4
74
0
42
0.000000001
43
0.0000000001
44
0.0000000001
40
0
40
0
40
0
40
0
40
1
40
1
40
1
40
1
10
107.29467672328954
20
83.001167454886115
30
0
10
107.30393030311706
20
83.445175556395569
30
0
10
107.69243950913882
20
83.741182839358316
30
0
10
108.02544417380358
20
83.963186890113036
30
0
0
SPLINE
5
279
100
AcDbEntity
8
0
100
AcDbSpline
70
1064
71
3
72
8
73
4
74
0
42
0.000000001
43
0.0000000001
44
0.0000000001
40
0
40
0
40
0
40
0
40
1
40
1
40
1
40
1
10
108.02544417380358
20
83.963186890113036
30
0
10
108.44170282756917
20
83.787433800887811
30
0
10
108.8394599675491
20
83.389673837973234
30
0
10
108.82095845376344
20
82.908665531827097
30
0
0
SPLINE
5
280
100
AcDbEntity
8
0
100
AcDbSpline
70
1064
71
3
72
8
73
4
74
0
42
0.000000001
43
0.0000000001
44
0.0000000001
40
0
40
0
40
0
40
0
40
1
40
1
40
1
40
1
10
108.82095845376344
20
82.908665531827097
30
0
10
108.82095845376344
20
82.039148019659223
30
0
10
108.81171051980527
20
81.178878441449484
30
0
10
108.82095845376344
20
80.318611686174464
30
0
0
SPLINE
5
281
100
AcDbEntity
8
0
100
AcDbSpline
70
1064
71
3
72
8
73
4
74
0
42
0.000000001
43
0.0000000001
44
0.0000000001
40
0
40
0
40
0
40
0
40
1
40
1
40
1
40
1
10
108.82095845376344
20
80.318611686174464
30
0
10
108.31219787693882
20
80.300110172388784
30
0
10
107.80343730011418
20
80.30936092928161
30
0
10
107.30393030311706
20
80.300110172388784
30
0
0
SPLINE
5
282
100
AcDbEntity
8
0
100
AcDbSpline
70
1064
71
3
72
8
73
4
74
0
42
0.000000001
43
0.0000000001
44
0.0000000001
40
0
40
0
40
0
40
0
40
1
40
1
40
1
40
1
10
107.30393030311706
20
80.300110172388784
30
0
10
107.28542878933139
20
81.197379955235192
30
0
10
107.29467672328954
20
82.094646915146896
30
0
10
107.29467672328954
20
83.001167454886115
30
0
0
SPLINE
5
283
100
AcDbEntity
8
0
100
AcDbSpline
70
1064
71
3
72
8
73
4
74
0
42
0.000000001
43
0.0000000001
44
0.0000000001
40
0
40
0
40
0
40
0
40
1
40
1
40
1
40
1
10
99.385765124677732
20
82.806912851875239
30
0
10
99.376514367784893
20
83.18617130100418
30
0
10
99.561518213902943
20
83.565429750133106
30
0
10
99.876024187716695
20
83.778183043994986
30
0
0
SPLINE
5
284
100
AcDbEntity
8
0
100
AcDbSpline
70
1064
71
3
72
8
73
4
74
0
42
0.000000001
43
0.0000000001
44
0.0000000001
40
0
40
0
40
0
40
0
40
1
40
1
40
1
40
1
10
99.876024187716695
20
83.778183043994986
30
0
10
100.11652975225708
20
83.537677479454601
30
0
10
100.32003511216078
20
83.241673019426514
30
0
10
100.32928304611897
20
82.899414774934272
30
0
0
SPLINE
5
285
100
AcDbEntity
8
0
100
AcDbSpline
70
1064
71
3
72
8
73
4
74
0
42
0.000000001
43
0.0000000001
44
0.0000000001
40
0
40
0
40
0
40
0
40
1
40
1
40
1
40
1
10
100.32928304611897
20
82.899414774934272
30
0
10
100.32928304611897
20
82.039148019659223
30
0
10
100.32003511216078
20
81.169627684556673
30
0
10
100.32928304611897
20
80.30936092928161
30
0
0
SPLINE
5
286
100
AcDbEntity
8
0
100
AcDbSpline
70
1064
71
3
72
8
73
4
74
0
42
0.000000001
43
0.0000000001
44
0.0000000001
40
0
40
0
40
0
40
0
40
1
40
1
40
1
40
1
10
100.32928304611897
20
80.30936092928161
30
0
10
100.01477707230522
20
80.300110172388784
30
0
10
99.700271098491484
20
80.300110172388784
30
0
10
99.376514367784893
20
80.318611686174464
30
0
0
SPLINE
5
287
100
AcDbEntity
8
0
100
AcDbSpline
70
1064
71
3
72
8
73
4
74
0
42
0.000000001
43
0.0000000001
44
0.0000000001
40
0
40
0
40
0
40
0
40
1
40
1
40
1
40
1
10
99.376514367784893
20
80.318611686174464
30
0
10
99.385765124677732
20
81.151128993705655
30
0
10
99.376514367784893
20
81.983646301236888
30
0
10
99.385765124677732
20
82.806912851875239
30
0
0
SPLINE
5
288
100
AcDbEntity
8
0
100
AcDbSpline
70
1064
71
3
72
8
73
4
74
0
42
0.000000001
43
0.0000000001
44
0.0000000001
40
0
40
0
40
0
40
0
40
1
40
1
40
1
40
1
10
81.921400357373358
20
81.789391698225984
30
0
10
81.912152423415165
20
82.446155916531993
30
0
10
82.383909972668462
20
83.001167454886115
30
0
10
82.874171858642086
20
83.389673837973234
30
0
0
SPLINE
5
289
100
AcDbEntity
8
0
100
AcDbSpline
70
1064
71
3
72
8
73
4
74
0
42
0.000000001
43
0.0000000001
44
0.0000000001
40
0
40
0
40
0
40
0
40
1
40
1
40
1
40
1
10
82.874171858642086
20
83.389673837973234
30
0
10
83.327430717044365
20
83.065917107266642
30
0
10
83.715939923066131
20
82.58490880112052
30
0
10
83.826940536976167
20
82.029897262766383
30
0
0
SPLINE
5
290
100
AcDbEntity
8
0
100
AcDbSpline
70
1064
71
3
72
8
73
4
74
0
42
0.000000001
43
0.0000000001
44
0.0000000001
40
0
40
0
40
0
40
0
40
1
40
1
40
1
40
1
10
83.826940536976167
20
82.029897262766383
30
0
10
83.845442050761818
20
80.947623633801953
30
0
10
83.836191293868993
20
79.874600761730349
30
0
10
83.826940536976167
20
78.792329955700566
30
0
0
SPLINE
5
291
100
AcDbEntity
8
0
100
AcDbSpline
70
1064
71
3
72
8
73
4
74
0
42
0.000000001
43
0.0000000001
44
0.0000000001
40
0
40
0
40
0
40
0
40
1
40
1
40
1
40
1
10
83.826940536976167
20
78.792329955700566
30
0
10
83.197928589348663
20
78.801580712593406
30
0
10
82.559665884828334
20
78.792329955700566
30
0
10
81.921400357373358
20
78.792329955700566
30
0
0
SPLINE
5
292
100
AcDbEntity
8
0
100
AcDbSpline
70
1064
71
3
72
8
73
4
74
0
42
0.000000001
43
0.0000000001
44
0.0000000001
40
0
40
0
40
0
40
0
40
1
40
1
40
1
40
1
10
81.921400357373358
20
78.792329955700566
30
0
10
81.921400357373358
20
79.791349595564157
30
0
10
81.921400357373358
20
80.790372058362408
30
0
10
81.921400357373358
20
81.789391698225984
30
0
0
SPLINE
5
293
100
AcDbEntity
8
0
100
AcDbSpline
70
1064
71
3
72
8
73
4
74
0
42
0.000000001
43
0.0000000001
44
0.0000000001
40
0
40
0
40
0
40
0
40
1
40
1
40
1
40
1
10
85.316222062813381
20
83.306422671807042
30
0
10
85.42722549965805
20
83.435924799502743
30
0
10
85.575226318204756
20
83.278673224063198
30
0
10
85.658480307305624
20
83.204669991855184
30
0
0
SPLINE
5
294
100
AcDbEntity
8
0
100
AcDbSpline
70
1064
71
3
72
8
73
4
74
0
42
0.000000001
43
0.0000000001
44
0.0000000001
40
0
40
0
40
0
40
0
40
1
40
1
40
1
40
1
10
85.658480307305624
20
83.204669991855184
30
0
10
86.037735933499874
20
82.825414365660919
30
0
10
86.407743625735975
20
82.35365399347296
30
0
10
86.379994177992131
20
81.789391698225984
30
0
0
SPLINE
5
295
100
AcDbEntity
8
0
100
AcDbSpline
70
1064
71
3
72
8
73
4
74
0
42
0.000000001
43
0.0000000001
44
0.0000000001
40
0
40
0
40
0
40
0
40
1
40
1
40
1
40
1
10
86.379994177992131
20
81.789391698225984
30
0
10
86.370743421099291
20
80.790372058362408
30
0
10
86.379994177992131
20
79.791349595564157
30
0
10
86.370743421099291
20
78.792329955700566
30
0
0
SPLINE
5
296
100
AcDbEntity
8
0
100
AcDbSpline
70
1064
71
3
72
8
73
4
74
0
42
0.000000001
43
0.0000000001
44
0.0000000001
40
0
40
0
40
0
40
0
40
1
40
1
40
1
40
1
10
86.370743421099291
20
78.792329955700566
30
0
10
85.741731473471802
20
78.801580712593406
30
0
10
85.103468768951487
20
78.801580712593406
30
0
10
84.474453998389322
20
78.792329955700566
30
0
0
SPLINE
5
297
100
AcDbEntity
8
0
100
AcDbSpline
70
1064
71
3
72
8
73
4
74
0
42
0.000000001
43
0.0000000001
44
0.0000000001
40
0
40
0
40
0
40
0
40
1
40
1
40
1
40
1
10
84.474453998389322
20
78.792329955700566
30
0
10
84.465203241496482
20
79.791349595564157
30
0
10
84.474453998389322
20
80.790372058362408
30
0
10
84.465203241496482
20
81.789391698225984
30
0
0
SPLINE
5
298
100
AcDbEntity
8
0
100
AcDbSpline
70
1064
71
3
72
8
73
4
74
0
42
0.000000001
43
0.0000000001
44
0.0000000001
40
0
40
0
40
0
40
0
40
1
40
1
40
1
40
1
10
84.465203241496482
20
81.789391698225984
30
0
10
84.446704550645478
20
82.409155711895323
30
0
10
84.881461895262078
20
82.92716422267813
30
0
10
85.316222062813381
20
83.306422671807042
30
0
0
SPLINE
5
299
100
AcDbEntity
8
0
100
AcDbSpline
70
1064
71
3
72
8
73
4
74
0
42
0.000000001
43
0.0000000001
44
0.0000000001
40
0
40
0
40
0
40
0
40
1
40
1
40
1
40
1
10
87.84152343315084
20
83.287923980956037
30
0
10
87.998777831525032
20
83.454426313288394
30
0
10
88.165280163857432
20
83.232422262533689
30
0
10
88.276283600702101
20
83.130669582581831
30
0
0
SPLINE
5
300
100
AcDbEntity
8
0
100
AcDbSpline
70
1064
71
3
72
8
73
4
74
0
42
0.000000001
43
0.0000000001
44
0.0000000001
40
0
40
0
40
0
40
0
40
1
40
1
40
1
40
1
10
88.276283600702101
20
83.130669582581831
30
0
10
88.618541845194358
20
82.769912647238584
30
0
10
88.951546509859128
20
82.316653788836305
30
0
10
88.933047819008095
20
81.789391698225984
30
0
0
SPLINE
5
301
100
AcDbEntity
8
0
100
AcDbSpline
70
1064
71
3
72
8
73
4
74
0
42
0.000000001
43
0.0000000001
44
0.0000000001
40
0
40
0
40
0
40
0
40
1
40
1
40
1
40
1
10
88.933047819008095
20
81.789391698225984
30
0
10
88.92379706211527
20
80.790372058362408
30
0
10
88.933047819008095
20
79.791349595564157
30
0
10
88.92379706211527
20
78.792329955700566
30
0
0
SPLINE
5
302
100
AcDbEntity
8
0
100
AcDbSpline
70
1064
71
3
72
8
73
4
74
0
42
0.000000001
43
0.0000000001
44
0.0000000001
40
0
40
0
40
0
40
0
40
1
40
1
40
1
40
1
10
88.92379706211527
20
78.792329955700566
30
0
10
88.285534357594941
20
78.801580712593406
30
0
10
87.647271653074625
20
78.792329955700566
30
0
10
87.009006125619635
20
78.792329955700566
30
0
0
SPLINE
5
303
100
AcDbEntity
8
0
100
AcDbSpline
70
1064
71
3
72
8
73
4
74
0
42
0.000000001
43
0.0000000001
44
0.0000000001
40
0
40
0
40
0
40
0
40
1
40
1
40
1
40
1
10
87.009006125619635
20
78.792329955700566
30
0
10
87.009006125619635
20
79.791349595564157
30
0
10
87.009006125619635
20
80.790372058362408
30
0
10
87.009006125619635
20
81.789391698225984
30
0
0
SPLINE
5
304
100
AcDbEntity
8
0
100
AcDbSpline
70
1064
71
3
72
8
73
4
74
0
42
0.000000001
43
0.0000000001
44
0.0000000001
40
0
40
0
40
0
40
0
40
1
40
1
40
1
40
1
10
87.009006125619635
20
81.789391698225984
30
0
10
86.990507434768617
20
82.39065419810963
30
0
10
87.406766088534226
20
82.908665531827097
30
0
10
87.84152343315084
20
83.287923980956037
30
0
0
SPLINE
5
305
100
AcDbEntity
8
0
100
AcDbSpline
70
1064
71
3
72
8
73
4
74
0
42
0.000000001
43
0.0000000001
44
0.0000000001
40
0
40
0
40
0
40
0
40
1
40
1
40
1
40
1
10
90.413078587952484
20
83.306422671807042
30
0
10
90.533329958755346
20
83.435924799502743
30
0
10
90.662832086451033
20
83.269422467170358
30
0
10
90.755334009510051
20
83.195422057897019
30
0
0
SPLINE
5
306
100
AcDbEntity
8
0
100
AcDbSpline
70
1064
71
3
72
8
73
4
74
0
42
0.000000001
43
0.0000000001
44
0.0000000001
40
0
40
0
40
0
40
0
40
1
40
1
40
1
40
1
10
90.755334009510051
20
83.195422057897019
30
0
10
91.134592458638991
20
82.825414365660919
30
0
10
91.495349393982252
20
82.35365399347296
30
0
10
91.476850703131248
20
81.789391698225984
30
0
0
SPLINE
5
307
100
AcDbEntity
8
0
100
AcDbSpline
70
1064
71
3
72
8
73
4
74
0
42
0.000000001
43
0.0000000001
44
0.0000000001
40
0
40
0
40
0
40
0
40
1
40
1
40
1
40
1
10
91.476850703131248
20
81.789391698225984
30
0
10
91.467599946238408
20
80.790372058362408
30
0
10
91.476850703131248
20
79.791349595564157
30
0
10
91.476850703131248
20
78.792329955700566
30
0
0
SPLINE
5
308
100
AcDbEntity
8
0
100
AcDbSpline
70
1064
71
3
72
8
73
4
74
0
42
0.000000001
43
0.0000000001
44
0.0000000001
40
0
40
0
40
0
40
0
40
1
40
1
40
1
40
1
10
91.476850703131248
20
78.792329955700566
30
0
10
90.838587998610919
20
78.792329955700566
30
0
10
90.200322471155928
20
78.801580712593406
30
0
10
89.571310523528425
20
78.792329955700566
30
0
0
SPLINE
5
309
100
AcDbEntity
8
0
100
AcDbSpline
70
1064
71
3
72
8
73
4
74
0
42
0.000000001
43
0.0000000001
44
0.0000000001
40
0
40
0
40
0
40
0
40
1
40
1
40
1
40
1
10
89.571310523528425
20
78.792329955700566
30
0
10
89.552809009742759
20
79.791349595564157
30
0
10
89.571310523528425
20
80.790372058362408
30
0
10
89.562059766635599
20
81.789391698225984
30
0
0
SPLINE
5
310
100
AcDbEntity
8
0
100
AcDbSpline
70
1064
71
3
72
8
73
4
74
0
42
0.000000001
43
0.0000000001
44
0.0000000001
40
0
40
0
40
0
40
0
40
1
40
1
40
1
40
1
10
89.562059766635599
20
81.789391698225984
30
0
10
89.534310318891755
20
82.409155711895323
30
0
10
89.969067663508355
20
82.936414979570941
30
0
10
90.413078587952484
20
83.306422671807042
30
0
0
SPLINE
5
311
100
AcDbEntity
8
0
100
AcDbSpline
70
1064
71
3
72
8
73
4
74
0
42
0.000000001
43
0.0000000001
44
0.0000000001
40
0
40
0
40
0
40
0
40
1
40
1
40
1
40
1
10
92.105862650758738
20
81.696889775166966
30
0
10
92.050360932336389
20
82.39065419810963
30
0
10
92.531372061417173
20
82.99191669799329
30
0
10
93.05863415202748
20
83.389673837973234
30
0
0
SPLINE
5
312
100
AcDbEntity
8
0
100
AcDbSpline
70
1064
71
3
72
8
73
4
74
0
42
0.000000001
43
0.0000000001
44
0.0000000001
40
0
40
0
40
0
40
0
40
1
40
1
40
1
40
1
10
93.05863415202748
20
83.389673837973234
30
0
10
93.521143767322599
20
83.047418416415653
30
0
10
93.928151664195369
20
82.547908596483836
30
0
10
94.011402830361561
20
81.965144787451209
30
0
0
SPLINE
5
313
100
AcDbEntity
8
0
100
AcDbSpline
70
1064
71
3
72
8
73
4
74
0
42
0.000000001
43
0.0000000001
44
0.0000000001
40
0
40
0
40
0
40
0
40
1
40
1
40
1
40
1
10
94.011402830361561
20
81.965144787451209
30
0
10
94.020653587254372
20
80.91062342916527
30
0
10
94.020653587254372
20
79.846851313986505
30
0
10
94.011402830361561
20
78.792329955700566
30
0
0
SPLINE
5
314
100
AcDbEntity
8
0
100
AcDbSpline
70
1064
71
3
72
8
73
4
74
0
42
0.000000001
43
0.0000000001
44
0.0000000001
40
0
40
0
40
0
40
0
40
1
40
1
40
1
40
1
10
94.011402830361561
20
78.792329955700566
30
0
10
93.373140125841232
20
78.801580712593406
30
0
10
92.734877421320903
20
78.792329955700566
30
0
10
92.105862650758738
20
78.792329955700566
30
0
0
SPLINE
5
315
100
AcDbEntity
8
0
100
AcDbSpline
70
1064
71
3
72
8
73
4
74
0
42
0.000000001
43
0.0000000001
44
0.0000000001
40
0
40
0
40
0
40
0
40
1
40
1
40
1
40
1
10
92.105862650758738
20
78.792329955700566
30
0
10
92.105862650758738
20
79.763600147820313
30
0
10
92.105862650758738
20
80.725619583047205
30
0
10
92.105862650758738
20
81.696889775166966
30
0
0
SPLINE
5
316
100
AcDbEntity
8
0
100
AcDbSpline
70
1064
71
3
72
8
73
4
74
0
42
0.000000001
43
0.0000000001
44
0.0000000001
40
0
40
0
40
0
40
0
40
1
40
1
40
1
40
1
10
94.658916291774702
20
82.029897262766383
30
0
10
94.769919728619399
20
82.58490880112052
30
0
10
95.158426111706518
20
83.075167864159482
30
0
10
95.620935727001623
20
83.380425904015055
30
0
0
SPLINE
5
317
100
AcDbEntity
8
0
100
AcDbSpline
70
1064
71
3
72
8
73
4
74
0
42
0.000000001
43
0.0000000001
44
0.0000000001
40
0
40
0
40
0
40
0
40
1
40
1
40
1
40
1
10
95.620935727001623
20
83.380425904015055
30
0
10
95.990943419237709
20
83.102920134838001
30
0
10
96.305449393051461
20
82.723661685709047
30
0
10
96.481205305211333
20
82.288901518157786
30
0
0
SPLINE
5
318
100
AcDbEntity
8
0
100
AcDbSpline
70
1064
71
3
72
8
73
4
74
0
42
0.000000001
43
0.0000000001
44
0.0000000001
40
0
40
0
40
0
40
0
40
1
40
1
40
1
40
1
10
96.481205305211333
20
82.288901518157786
30
0
10
96.592205919121369
20
82.011395748980718
30
0
10
96.5552057144847
20
81.706140532059806
30
0
10
96.564456471377511
20
81.419384005989897
30
0
0
SPLINE
5
319
100
AcDbEntity
8
0
100
AcDbSpline
70
1064
71
3
72
8
73
4
74
0
42
0.000000001
43
0.0000000001
44
0.0000000001
40
0
40
0
40
0
40
0
40
1
40
1
40
1
40
1
10
96.564456471377511
20
81.419384005989897
30
0
10
96.564456471377511
20
80.540615736929183
30
0
10
96.5552057144847
20
79.671098224761295
30
0
10
96.564456471377511
20
78.792329955700566
30
0
0
SPLINE
5
320
100
AcDbEntity
8
0
100
AcDbSpline
70
1064
71
3
72
8
73
4
74
0
42
0.000000001
43
0.0000000001
44
0.0000000001
40
0
40
0
40
0
40
0
40
1
40
1
40
1
40
1
10
96.564456471377511
20
78.792329955700566
30
0
10
95.926193766857196
20
78.792329955700566
30
0
10
95.287928239402206
20
78.801580712593406
30
0
10
94.64966553488189
20
78.792329955700566
30
0
0
SPLINE
5
321
100
AcDbEntity
8
0
100
AcDbSpline
70
1064
71
3
72
8
73
4
74
0
42
0.000000001
43
0.0000000001
44
0.0000000001
40
0
40
0
40
0
40
0
40
1
40
1
40
1
40
1
10
94.64966553488189
20
78.792329955700566
30
0
10
94.64966553488189
20
79.874600761730349
30
0
10
94.640414777989037
20
80.947623633801953
30
0
10
94.658916291774702
20
82.029897262766383
30
0
0
SPLINE
5
322
100
AcDbEntity
8
0
100
AcDbSpline
70
1064
71
3
72
8
73
4
74
0
42
0.000000001
43
0.0000000001
44
0.0000000001
40
0
40
0
40
0
40
0
40
1
40
1
40
1
40
1
10
82.89267054949309
20
77.38630241896422
30
0
10
83.170176318670158
20
77.238295954548178
30
0
10
83.410681883210543
20
77.007041146900619
30
0
10
83.521685320055241
20
76.711033863937885
30
0
0
SPLINE
5
323
100
AcDbEntity
8
0
100
AcDbSpline
70
1064
71
3
72
8
73
4
74
0
42
0.000000001
43
0.0000000001
44
0.0000000001
40
0
40
0
40
0
40
0
40
1
40
1
40
1
40
1
10
83.521685320055241
20
76.711033863937885
30
0
10
83.577187038477589
20
76.415032226844474
30
0
10
83.540184010906259
20
76.109771364054225
30
0
10
83.549434767799085
20
75.813769726960814
30
0
0
SPLINE
5
324
100
AcDbEntity
8
0
100
AcDbSpline
70
1064
71
3
72
8
73
4
74
0
42
0.000000001
43
0.0000000001
44
0.0000000001
40
0
40
0
40
0
40
0
40
1
40
1
40
1
40
1
10
83.549434767799085
20
75.813769726960814
30
0
10
83.105426666289631
20
75.813769726960814
30
0
10
82.67066649873837
20
75.813769726960814
30
0
10
82.226658397228931
20
75.813769726960814
30
0
0
SPLINE
5
325
100
AcDbEntity
8
0
100
AcDbSpline
70
1064
71
3
72
8
73
4
74
0
42
0.000000001
43
0.0000000001
44
0.0000000001
40
0
40
0
40
0
40
0
40
1
40
1
40
1
40
1
10
82.226658397228931
20
75.813769726960814
30
0
10
82.226658397228931
20
76.183777419196915
30
0
10
82.124905717277059
20
76.609284006920689
30
0
10
82.356160524924618
20
76.933040737627266
30
0
0
SPLINE
5
326
100
AcDbEntity
8
0
100
AcDbSpline
70
1064
71
3
72
8
73
4
74
0
42
0.000000001
43
0.0000000001
44
0.0000000001
40
0
40
0
40
0
40
0
40
1
40
1
40
1
40
1
10
82.356160524924618
20
76.933040737627266
30
0
10
82.485662652620306
20
77.127292517703495
30
0
10
82.67066649873837
20
77.303048429863367
30
0
10
82.89267054949309
20
77.38630241896422
30
0
0
SPLINE
5
327
100
AcDbEntity
8
0
100
AcDbSpline
70
1064
71
3
72
8
73
4
74
0
42
0.000000001
43
0.0000000001
44
0.0000000001
40
0
40
0
40
0
40
0
40
1
40
1
40
1
40
1
10
94.95492357473745
20
76.655534968450198
30
0
10
95.038174740903656
20
76.997793212942454
30
0
10
95.324931266973536
20
77.229048020590014
30
0
10
95.611684970108797
20
77.404798286880549
30
0
0
SPLINE
5
328
100
AcDbEntity
8
0
100
AcDbSpline
70
1064
71
3
72
8
73
4
74
0
42
0.000000001
43
0.0000000001
44
0.0000000001
40
0
40
0
40
0
40
0
40
1
40
1
40
1
40
1
10
95.611684970108797
20
77.404798286880549
30
0
10
95.870692048434847
20
77.229048020590014
30
0
10
96.148197817611916
20
77.01629472672812
30
0
10
96.249950497563788
20
76.701785929979721
30
0
0
SPLINE
5
329
100
AcDbEntity
8
0
100
AcDbSpline
70
1064
71
3
72
8
73
4
74
0
42
0.000000001
43
0.0000000001
44
0.0000000001
40
0
40
0
40
0
40
0
40
1
40
1
40
1
40
1
10
96.249950497563788
20
76.701785929979721
30
0
10
96.296201459093282
20
76.405778647016973
30
0
10
96.259198431521952
20
76.109771364054225
30
0
10
96.268449188414777
20
75.813769726960814
30
0
0
SPLINE
5
330
100
AcDbEntity
8
0
100
AcDbSpline
70
1064
71
3
72
8
73
4
74
0
42
0.000000001
43
0.0000000001
44
0.0000000001
40
0
40
0
40
0
40
0
40
1
40
1
40
1
40
1
10
96.268449188414777
20
75.813769726960814
30
0
10
95.824441086905352
20
75.813769726960814
30
0
10
95.380430162461224
20
75.813769726960814
30
0
10
94.93642206095177
20
75.813769726960814
30
0
0
SPLINE
5
331
100
AcDbEntity
8
0
100
AcDbSpline
70
1064
71
3
72
8
73
4
74
0
42
0.000000001
43
0.0000000001
44
0.0000000001
40
0
40
0
40
0
40
0
40
1
40
1
40
1
40
1
10
94.93642206095177
20
75.813769726960814
30
0
10
94.945672817844624
20
76.091275496137897
30
0
10
94.917920547166119
20
76.378029199273129
30
0
10
94.95492357473745
20
76.655534968450198
30
0
0
SPLINE
5
332
100
AcDbEntity
8
0
100
AcDbSpline
70
1064
71
3
72
8
73
4
74
0
42
0.000000001
43
0.0000000001
44
0.0000000001
40
0
40
0
40
0
40
0
40
1
40
1
40
1
40
1
10
84.909214165940597
20
76.951542251412931
30
0
10
85.038716293636298
20
77.155047611316661
30
0
10
85.242221653540014
20
77.293800495905188
30
0
10
85.445724190509068
20
77.404798286880549
30
0
0
SPLINE
5
333
100
AcDbEntity
8
0
100
AcDbSpline
70
1064
71
3
72
8
73
4
74
0
42
0.000000001
43
0.0000000001
44
0.0000000001
40
0
40
0
40
0
40
0
40
1
40
1
40
1
40
1
10
85.445724190509068
20
77.404798286880549
30
0
10
85.695480511942293
20
77.210546506804334
30
0
10
85.982237038012215
20
77.01629472672812
30
0
10
86.065488204178394
20
76.701785929979721
30
0
0
SPLINE
5
334
100
AcDbEntity
8
0
100
AcDbSpline
70
1064
71
3
72
8
73
4
74
0
42
0.000000001
43
0.0000000001
44
0.0000000001
40
0
40
0
40
0
40
0
40
1
40
1
40
1
40
1
10
86.065488204178394
20
76.701785929979721
30
0
10
86.111739165707903
20
76.405778647016973
30
0
10
86.083986895029398
20
76.109771364054225
30
0
10
86.083986895029398
20
75.813769726960814
30
0
0
SPLINE
5
335
100
AcDbEntity
8
0
100
AcDbSpline
70
1064
71
3
72
8
73
4
74
0
42
0.000000001
43
0.0000000001
44
0.0000000001
40
0
40
0
40
0
40
0
40
1
40
1
40
1
40
1
10
86.083986895029398
20
75.813769726960814
30
0
10
85.639978793519944
20
75.813769726960814
30
0
10
85.195970692010491
20
75.813769726960814
30
0
10
84.761210524459216
20
75.813769726960814
30
0
0
SPLINE
5
336
100
AcDbEntity
8
0
100
AcDbSpline
70
1064
71
3
72
8
73
4
74
0
42
0.000000001
43
0.0000000001
44
0.0000000001
40
0
40
0
40
0
40
0
40
1
40
1
40
1
40
1
10
84.761210524459216
20
75.813769726960814
30
0
10
84.78895997220306
20
76.193025353155093
30
0
10
84.659457844507372
20
76.627785520706354
30
0
10
84.909214165940597
20
76.951542251412931
30
0
0
SPLINE
5
337
100
AcDbEntity
8
0
100
AcDbSpline
70
1064
71
3
72
8
73
4
74
0
42
0.000000001
43
0.0000000001
44
0.0000000001
40
0
40
0
40
0
40
0
40
1
40
1
40
1
40
1
10
87.332762856326198
20
76.692537996021542
30
0
10
87.416016845427066
20
77.01629472672812
30
0
10
87.702770548562299
20
77.219794440762513
30
0
10
87.961777626888363
20
77.404798286880549
30
0
0
SPLINE
5
338
100
AcDbEntity
8
0
100
AcDbSpline
70
1064
71
3
72
8
73
4
74
0
42
0.000000001
43
0.0000000001
44
0.0000000001
40
0
40
0
40
0
40
0
40
1
40
1
40
1
40
1
10
87.961777626888363
20
77.404798286880549
30
0
10
88.248534152958271
20
77.219794440762513
30
0
10
88.544538612986344
20
76.997793212942454
30
0
10
88.618541845194358
20
76.655534968450198
30
0
0
SPLINE
5
339
100
AcDbEntity
8
0
100
AcDbSpline
70
1064
71
3
72
8
73
4
74
0
42
0.000000001
43
0.0000000001
44
0.0000000001
40
0
40
0
40
0
40
0
40
1
40
1
40
1
40
1
10
88.618541845194358
20
76.655534968450198
30
0
10
88.655542049831041
20
76.378029199273129
30
0
10
88.637040536045362
20
76.100523430096061
30
0
10
88.637040536045362
20
75.813769726960814
30
0
0
SPLINE
5
340
100
AcDbEntity
8
0
100
AcDbSpline
70
1064
71
3
72
8
73
4
74
0
42
0.000000001
43
0.0000000001
44
0.0000000001
40
0
40
0
40
0
40
0
40
1
40
1
40
1
40
1
10
88.637040536045362
20
75.813769726960814
30
0
10
88.202283191428762
20
75.813769726960814
30
0
10
87.758272266984648
20
75.813769726960814
30
0
10
87.314264165475208
20
75.813769726960814
30
0
0
SPLINE
5
341
100
AcDbEntity
8
0
100
AcDbSpline
70
1064
71
3
72
8
73
4
74
0
42
0.000000001
43
0.0000000001
44
0.0000000001
40
0
40
0
40
0
40
0
40
1
40
1
40
1
40
1
10
87.314264165475208
20
75.813769726960814
30
0
10
87.305013408582369
20
76.109771364054225
30
0
10
87.268013203945685
20
76.405778647016973
30
0
10
87.332762856326198
20
76.692537996021542
30
0
0
SPLINE
5
342
100
AcDbEntity
8
0
100
AcDbSpline
70
1064
71
3
72
8
73
4
74
0
42
0.000000001
43
0.0000000001
44
0.0000000001
40
0
40
0
40
0
40
0
40
1
40
1
40
1
40
1
10
89.867317806491172
20
76.692537996021542
30
0
10
89.959819729550205
20
77.01629472672812
30
0
10
90.255824189578263
20
77.238295954548178
30
0
10
90.533329958755346
20
77.404798286880549
30
0
0
SPLINE
5
343
100
AcDbEntity
8
0
100
AcDbSpline
70
1064
71
3
72
8
73
4
74
0
42
0.000000001
43
0.0000000001
44
0.0000000001
40
0
40
0
40
0
40
0
40
1
40
1
40
1
40
1
10
90.533329958755346
20
77.404798286880549
30
0
10
90.79233703708141
20
77.210546506804334
30
0
10
91.088341497109468
20
77.007041146900619
30
0
10
91.162344729317496
20
76.683284416194041
30
0
0
SPLINE
5
344
100
AcDbEntity
8
0
100
AcDbSpline
70
1064
71
3
72
8
73
4
74
0
42
0.000000001
43
0.0000000001
44
0.0000000001
40
0
40
0
40
0
40
0
40
1
40
1
40
1
40
1
10
91.162344729317496
20
76.683284416194041
30
0
10
91.19934493395418
20
76.396530713058809
30
0
10
91.171592663275675
20
76.100523430096061
30
0
10
91.1808434201685
20
75.813769726960814
30
0
0
SPLINE
5
345
100
AcDbEntity
8
0
100
AcDbSpline
70
1064
71
3
72
8
73
4
74
0
42
0.000000001
43
0.0000000001
44
0.0000000001
40
0
40
0
40
0
40
0
40
1
40
1
40
1
40
1
10
91.1808434201685
20
75.813769726960814
30
0
10
90.736835318659075
20
75.813769726960814
30
0
10
90.292824394214946
20
75.813769726960814
30
0
10
89.848816292705493
20
75.813769726960814
30
0
0
SPLINE
5
346
100
AcDbEntity
8
0
100
AcDbSpline
70
1064
71
3
72
8
73
4
74
0
42
0.000000001
43
0.0000000001
44
0.0000000001
40
0
40
0
40
0
40
0
40
1
40
1
40
1
40
1
10
89.848816292705493
20
75.813769726960814
30
0
10
89.858067049598347
20
76.109771364054225
30
0
10
89.830314778919842
20
76.396530713058809
30
0
10
89.867317806491172
20
76.692537996021542
30
0
0
SPLINE
5
347
100
AcDbEntity
8
0
100
AcDbSpline
70
1064
71
3
72
8
73
4
74
0
42
0.000000001
43
0.0000000001
44
0.0000000001
40
0
40
0
40
0
40
0
40
1
40
1
40
1
40
1
10
92.420368624572475
20
76.701785929979721
30
0
10
92.512870547631508
20
77.01629472672812
30
0
10
92.790376316808576
20
77.219794440762513
30
0
10
93.04938339513464
20
77.404798286880549
30
0
0
SPLINE
5
348
100
AcDbEntity
8
0
100
AcDbSpline
70
1064
71
3
72
8
73
4
74
0
42
0.000000001
43
0.0000000001
44
0.0000000001
40
0
40
0
40
0
40
0
40
1
40
1
40
1
40
1
10
93.04938339513464
20
77.404798286880549
30
0
10
93.326889164311694
20
77.238295954548178
30
0
10
93.595144176595952
20
77.01629472672812
30
0
10
93.706147613440649
20
76.711033863937885
30
0
0
SPLINE
5
349
100
AcDbEntity
8
0
100
AcDbSpline
70
1064
71
3
72
8
73
4
74
0
42
0.000000001
43
0.0000000001
44
0.0000000001
40
0
40
0
40
0
40
0
40
1
40
1
40
1
40
1
10
93.706147613440649
20
76.711033863937885
30
0
10
93.752398574970144
20
76.415032226844474
30
0
10
93.715395547398813
20
76.109771364054225
30
0
10
93.724646304291639
20
75.813769726960814
30
0
0
SPLINE
5
350
100
AcDbEntity
8
0
100
AcDbSpline
70
1064
71
3
72
8
73
4
74
0
42
0.000000001
43
0.0000000001
44
0.0000000001
40
0
40
0
40
0
40
0
40
1
40
1
40
1
40
1
10
93.724646304291639
20
75.813769726960814
30
0
10
93.2806382027822
20
75.813769726960814
30
0
10
92.845878035230925
20
75.813769726960814
30
0
10
92.401869933721485
20
75.813769726960814
30
0
0
SPLINE
5
351
100
AcDbEntity
8
0
100
AcDbSpline
70
1064
71
3
72
8
73
4
74
0
42
0.000000001
43
0.0000000001
44
0.0000000001
40
0
40
0
40
0
40
0
40
1
40
1
40
1
40
1
10
92.401869933721485
20
75.813769726960814
30
0
10
92.401869933721485
20
76.109771364054225
30
0
10
92.374117663042981
20
76.405778647016973
30
0
10
92.420368624572475
20
76.701785929979721
30
0
0
SPLINE
5
352
100
AcDbEntity
8
0
100
AcDbSpline
70
1064
71
3
72
8
73
4
74
0
42
0.000000001
43
0.0000000001
44
0.0000000001
40
0
40
0
40
0
40
0
40
1
40
1
40
1
40
1
10
80.718875357606038
20
75.619512301015277
30
0
10
81.024133397461625
20
75.619512301015277
30
0
10
80.848380308236401
20
75.268006122564856
30
0
10
80.885380512873084
20
75.083002276446805
30
0
0
SPLINE
5
353
100
AcDbEntity
8
0
100
AcDbSpline
70
1064
71
3
72
8
73
4
74
0
42
0.000000001
43
0.0000000001
44
0.0000000001
40
0
40
0
40
0
40
0
40
1
40
1
40
1
40
1
10
80.885380512873084
20
75.083002276446805
30
0
10
86.472496101051149
20
75.055252828702962
30
0
10
92.068862446122068
20
75.073754342488627
30
0
10
97.655978034300134
20
75.073754342488627
30
0
0
SPLINE
5
354
100
AcDbEntity
8
0
100
AcDbSpline
70
1064
71
3
72
8
73
4
74
0
42
0.000000001
43
0.0000000001
44
0.0000000001
40
0
40
0
40
0
40
0
40
1
40
1
40
1
40
1
10
97.655978034300134
20
75.073754342488627
30
0
10
97.637479343449129
20
74.87949691654309
30
0
10
97.674479548085813
20
74.685245136466875
30
0
10
97.776232228037657
20
74.509489224306989
30
0
0
SPLINE
5
355
100
AcDbEntity
8
0
100
AcDbSpline
70
1064
71
3
72
8
73
4
74
0
42
0.000000001
43
0.0000000001
44
0.0000000001
40
0
40
0
40
0
40
0
40
1
40
1
40
1
40
1
10
97.776232228037657
20
74.509489224306989
30
0
10
91.957859009277371
20
74.509489224306989
30
0
10
86.148739370344572
20
74.509489224306989
30
0
10
80.339619731411773
20
74.500241290348825
30
0
0
SPLINE
5
356
100
AcDbEntity
8
0
100
AcDbSpline
70
1064
71
3
72
8
73
4
74
0
42
0.000000001
43
0.0000000001
44
0.0000000001
40
0
40
0
40
0
40
0
40
1
40
1
40
1
40
1
10
80.339619731411773
20
74.500241290348825
30
0
10
80.330368974518933
20
74.648242108895531
30
0
10
80.321118217626108
20
74.786994993484072
30
0
10
80.339619731411773
20
74.925747878072599
30
0
0
SPLINE
5
357
100
AcDbEntity
8
0
100
AcDbSpline
70
1064
71
3
72
8
73
4
74
0
42
0.000000001
43
0.0000000001
44
0.0000000001
40
0
40
0
40
0
40
0
40
1
40
1
40
1
40
1
10
80.339619731411773
20
74.925747878072599
30
0
10
80.478372616000314
20
75.138501171934479
30
0
10
80.681875152969383
20
75.27725405652302
30
0
10
80.848380308236401
20
75.46225790264107
30
0
0
SPLINE
5
358
100
AcDbEntity
8
0
100
AcDbSpline
70
1064
71
3
72
8
73
4
74
0
42
0.000000001
43
0.0000000001
44
0.0000000001
40
0
40
0
40
0
40
0
40
1
40
1
40
1
40
1
10
80.848380308236401
20
75.46225790264107
30
0
10
80.81137728066507
20
75.508508864170579
30
0
10
80.746627628284543
20
75.582514919313269
30
0
10
80.718875357606038
20
75.619512301015277
30
0
0
SPLINE
5
359
100
AcDbEntity
8
0
100
AcDbSpline
70
1064
71
3
72
8
73
4
74
0
42
0.000000001
43
0.0000000001
44
0.0000000001
40
0
40
0
40
0
40
0
40
1
40
1
40
1
40
1
10
82.726168217160705
20
72.696453790697873
30
0
10
83.012924743230627
20
72.816705161500735
30
0
10
83.336681473937205
20
72.576202419895012
30
0
10
83.336681473937205
20
72.270941557104763
30
0
0
SPLINE
5
360
100
AcDbEntity
8
0
100
AcDbSpline
70
1064
71
3
72
8
73
4
74
0
42
0.000000001
43
0.0000000001
44
0.0000000001
40
0
40
0
40
0
40
0
40
1
40
1
40
1
40
1
10
83.336681473937205
20
72.270941557104763
30
0
10
83.382932435466714
20
71.392173288044049
30
0
10
83.336681473937205
20
70.51340501898332
30
0
10
83.355180164788209
20
69.634636749922606
30
0
0
SPLINE
5
361
100
AcDbEntity
8
0
100
AcDbSpline
70
1064
71
3
72
8
73
4
74
0
42
0.000000001
43
0.0000000001
44
0.0000000001
40
0
40
0
40
0
40
0
40
1
40
1
40
1
40
1
10
83.355180164788209
20
69.634636749922606
30
0
10
83.040674190974471
20
69.625388815964428
30
0
10
82.726168217160705
20
69.625388815964428
30
0
10
82.411662243346967
20
69.625388815964428
30
0
0
SPLINE
5
362
100
AcDbEntity
8
0
100
AcDbSpline
70
1064
71
3
72
8
73
4
74
0
42
0.000000001
43
0.0000000001
44
0.0000000001
40
0
40
0
40
0
40
0
40
1
40
1
40
1
40
1
10
82.411662243346967
20
69.625388815964428
30
0
10
82.393160729561288
20
70.411655161966124
30
0
10
82.411662243346967
20
71.19792150796782
30
0
10
82.402411486454127
20
71.993435787927694
30
0
0
SPLINE
5
363
100
AcDbEntity
8
0
100
AcDbSpline
70
1064
71
3
72
8
73
4
74
0
42
0.000000001
43
0.0000000001
44
0.0000000001
40
0
40
0
40
0
40
0
40
1
40
1
40
1
40
1
10
82.402411486454127
20
71.993435787927694
30
0
10
82.411662243346967
20
72.243192109360933
30
0
10
82.420913000239793
20
72.61319980159702
30
0
10
82.726168217160705
20
72.696453790697873
30
0
0
SPLINE
5
364
100
AcDbEntity
8
0
100
AcDbSpline
70
1064
71
3
72
8
73
4
74
0
42
0.000000001
43
0.0000000001
44
0.0000000001
40
0
40
0
40
0
40
0
40
1
40
1
40
1
40
1
10
85.168218421331986
20
72.65020282916835
30
0
10
85.334723576599032
20
72.751952686185547
30
0
10
85.547476870460912
20
72.742704752227382
30
0
10
85.713979202793297
20
72.640949249340864
30
0
0
SPLINE
5
365
100
AcDbEntity
8
0
100
AcDbSpline
70
1064
71
3
72
8
73
4
74
0
42
0.000000001
43
0.0000000001
44
0.0000000001
40
0
40
0
40
0
40
0
40
1
40
1
40
1
40
1
10
85.713979202793297
20
72.640949249340864
30
0
10
85.926735319589852
20
72.418948021520805
30
0
10
85.898983048911347
20
72.076689777028548
30
0
10
85.898983048911347
20
71.79918400785148
30
0
0
SPLINE
5
366
100
AcDbEntity
8
0
100
AcDbSpline
70
1064
71
3
72
8
73
4
74
0
42
0.000000001
43
0.0000000001
44
0.0000000001
40
0
40
0
40
0
40
0
40
1
40
1
40
1
40
1
10
85.898983048911347
20
71.79918400785148
30
0
10
85.889735114953183
20
71.068416557337471
30
0
10
85.917484562697013
20
70.346902686650949
30
0
10
85.880484358060329
20
69.616140882006263
30
0
0
SPLINE
5
367
100
AcDbEntity
8
0
100
AcDbSpline
70
1064
71
3
72
8
73
4
74
0
42
0.000000001
43
0.0000000001
44
0.0000000001
40
0
40
0
40
0
40
0
40
1
40
1
40
1
40
1
10
85.880484358060329
20
69.616140882006263
30
0
10
85.575226318204756
20
69.634636749922606
30
0
10
85.260720344391018
20
69.625388815964428
30
0
10
84.955465127470106
20
69.625388815964428
30
0
0
SPLINE
5
368
100
AcDbEntity
8
0
100
AcDbSpline
70
1064
71
3
72
8
73
4
74
0
42
0.000000001
43
0.0000000001
44
0.0000000001
40
0
40
0
40
0
40
0
40
1
40
1
40
1
40
1
10
84.955465127470106
20
69.625388815964428
30
0
10
84.955465127470106
20
70.411655161966124
30
0
10
84.955465127470106
20
71.19792150796782
30
0
10
84.955465127470106
20
71.98418785396953
30
0
0
SPLINE
5
369
100
AcDbEntity
8
0
100
AcDbSpline
70
1064
71
3
72
8
73
4
74
0
42
0.000000001
43
0.0000000001
44
0.0000000001
40
0
40
0
40
0
40
0
40
1
40
1
40
1
40
1
10
84.955465127470106
20
71.98418785396953
30
0
10
84.955465127470106
20
72.224690595575254
30
0
10
84.964715884362931
20
72.492948430794144
30
0
10
85.168218421331986
20
72.65020282916835
30
0
0
SPLINE
5
370
100
AcDbEntity
8
0
100
AcDbSpline
70
1064
71
3
72
8
73
4
74
0
42
0.000000001
43
0.0000000001
44
0.0000000001
40
0
40
0
40
0
40
0
40
1
40
1
40
1
40
1
10
87.499268011593244
20
72.085937710986727
30
0
10
87.480766497807565
20
72.363443480163795
30
0
10
87.628770139288946
20
72.724203238441717
30
0
10
87.952526869995538
20
72.724203238441717
30
0
0
SPLINE
5
371
100
AcDbEntity
8
0
100
AcDbSpline
70
1064
71
3
72
8
73
4
74
0
42
0.000000001
43
0.0000000001
44
0.0000000001
40
0
40
0
40
0
40
0
40
1
40
1
40
1
40
1
10
87.952526869995538
20
72.724203238441717
30
0
10
88.267032843809275
20
72.751952686185547
30
0
10
88.452036689927311
20
72.43744953530647
30
0
10
88.442785933034486
20
72.169191700087566
30
0
0
SPLINE
5
372
100
AcDbEntity
8
0
100
AcDbSpline
70
1064
71
3
72
8
73
4
74
0
42
0.000000001
43
0.0000000001
44
0.0000000001
40
0
40
0
40
0
40
0
40
1
40
1
40
1
40
1
10
88.442785933034486
20
72.169191700087566
30
0
10
88.452036689927311
20
71.327426458598197
30
0
10
88.433537999076322
20
70.476407637281312
30
0
10
88.442785933034486
20
69.634636749922606
30
0
0
SPLINE
5
373
100
AcDbEntity
8
0
100
AcDbSpline
70
1064
71
3
72
8
73
4
74
0
42
0.000000001
43
0.0000000001
44
0.0000000001
40
0
40
0
40
0
40
0
40
1
40
1
40
1
40
1
10
88.442785933034486
20
69.634636749922606
30
0
10
88.137530716113574
20
69.625388815964428
30
0
10
87.823024742299822
20
69.625388815964428
30
0
10
87.50851876848607
20
69.625388815964428
30
0
0
SPLINE
5
374
100
AcDbEntity
8
0
100
AcDbSpline
70
1064
71
3
72
8
73
4
74
0
42
0.000000001
43
0.0000000001
44
0.0000000001
40
0
40
0
40
0
40
0
40
1
40
1
40
1
40
1
10
87.50851876848607
20
69.625388815964428
30
0
10
87.490017254700405
20
70.439404609709982
30
0
10
87.499268011593244
20
71.262673983283008
30
0
10
87.499268011593244
20
72.085937710986727
30
0
0
SPLINE
5
375
100
AcDbEntity
8
0
100
AcDbSpline
70
1064
71
3
72
8
73
4
74
0
42
0.000000001
43
0.0000000001
44
0.0000000001
40
0
40
0
40
0
40
0
40
1
40
1
40
1
40
1
10
90.3760783833158
20
72.705701724656038
30
0
10
90.672082843343873
20
72.79820364771507
30
0
10
90.968090126306606
20
72.557700906109346
30
0
10
90.97734088319946
20
72.261693623146598
30
0
0
SPLINE
5
376
100
AcDbEntity
8
0
100
AcDbSpline
70
1064
71
3
72
8
73
4
74
0
42
0.000000001
43
0.0000000001
44
0.0000000001
40
0
40
0
40
0
40
0
40
1
40
1
40
1
40
1
10
90.97734088319946
20
72.261693623146598
30
0
10
91.00509033094329
20
71.392173288044049
30
0
10
90.97734088319946
20
70.51340501898332
30
0
10
90.986588817157624
20
69.634636749922606
30
0
0
SPLINE
5
377
100
AcDbEntity
8
0
100
AcDbSpline
70
1064
71
3
72
8
73
4
74
0
42
0.000000001
43
0.0000000001
44
0.0000000001
40
0
40
0
40
0
40
0
40
1
40
1
40
1
40
1
10
90.986588817157624
20
69.634636749922606
30
0
10
90.672082843343873
20
69.625388815964428
30
0
10
90.357576869530121
20
69.625388815964428
30
0
10
90.043070895716383
20
69.625388815964428
30
0
0
SPLINE
5
378
100
AcDbEntity
8
0
100
AcDbSpline
70
1064
71
3
72
8
73
4
74
0
42
0.000000001
43
0.0000000001
44
0.0000000001
40
0
40
0
40
0
40
0
40
1
40
1
40
1
40
1
10
90.043070895716383
20
69.625388815964428
30
0
10
90.043070895716383
20
70.448658189537468
30
0
10
90.033820138823557
20
71.262673983283008
30
0
10
90.043070895716383
20
72.076689777028548
30
0
0
SPLINE
5
379
100
AcDbEntity
8
0
100
AcDbSpline
70
1064
71
3
72
8
73
4
74
0
42
0.000000001
43
0.0000000001
44
0.0000000001
40
0
40
0
40
0
40
0
40
1
40
1
40
1
40
1
10
90.043070895716383
20
72.076689777028548
30
0
10
90.043070895716383
20
72.317192518634272
30
0
10
90.107820548096896
20
72.631701315382685
30
0
10
90.3760783833158
20
72.705701724656038
30
0
0
SPLINE
5
380
100
AcDbEntity
8
0
100
AcDbSpline
70
1064
71
3
72
8
73
4
74
0
42
0.000000001
43
0.0000000001
44
0.0000000001
40
0
40
0
40
0
40
0
40
1
40
1
40
1
40
1
10
92.734877421320903
20
72.585450353853176
30
0
10
92.873630305909415
20
72.751952686185547
30
0
10
93.141885318193658
20
72.751952686185547
30
0
10
93.326889164311694
20
72.65020282916835
30
0
0
SPLINE
5
381
100
AcDbEntity
8
0
100
AcDbSpline
70
1064
71
3
72
8
73
4
74
0
42
0.000000001
43
0.0000000001
44
0.0000000001
40
0
40
0
40
0
40
0
40
1
40
1
40
1
40
1
10
93.326889164311694
20
72.65020282916835
30
0
10
93.493391496644094
20
72.511449944579823
30
0
10
93.530391701280763
20
72.280195136932264
30
0
10
93.530391701280763
20
72.076689777028548
30
0
0
SPLINE
5
382
100
AcDbEntity
8
0
100
AcDbSpline
70
1064
71
3
72
8
73
4
74
0
42
0.000000001
43
0.0000000001
44
0.0000000001
40
0
40
0
40
0
40
0
40
1
40
1
40
1
40
1
10
93.530391701280763
20
72.076689777028548
30
0
10
93.539642458173589
20
71.262673983283008
30
0
10
93.530391701280763
20
70.448658189537468
30
0
10
93.539642458173589
20
69.634636749922606
30
0
0
SPLINE
5
383
100
AcDbEntity
8
0
100
AcDbSpline
70
1064
71
3
72
8
73
4
74
0
42
0.000000001
43
0.0000000001
44
0.0000000001
40
0
40
0
40
0
40
0
40
1
40
1
40
1
40
1
10
93.539642458173589
20
69.634636749922606
30
0
10
93.225136484359865
20
69.625388815964428
30
0
10
92.910630510546099
20
69.625388815964428
30
0
10
92.596124536732361
20
69.625388815964428
30
0
0
SPLINE
5
384
100
AcDbEntity
8
0
100
AcDbSpline
70
1064
71
3
72
8
73
4
74
0
42
0.000000001
43
0.0000000001
44
0.0000000001
40
0
40
0
40
0
40
0
40
1
40
1
40
1
40
1
10
92.596124536732361
20
69.625388815964428
30
0
10
92.577623022946682
20
70.346902686650949
30
0
10
92.596124536732361
20
71.068416557337471
30
0
10
92.586873779839522
20
71.789936073893315
30
0
0
SPLINE
5
385
100
AcDbEntity
8
0
100
AcDbSpline
70
1064
71
3
72
8
73
4
74
0
42
0.000000001
43
0.0000000001
44
0.0000000001
40
0
40
0
40
0
40
0
40
1
40
1
40
1
40
1
10
92.586873779839522
20
71.789936073893315
30
0
10
92.596124536732361
20
72.058188263242883
30
0
10
92.559121509161017
20
72.354195546205617
30
0
10
92.734877421320903
20
72.585450353853176
30
0
0
SPLINE
5
386
100
AcDbEntity
8
0
100
AcDbSpline
70
1064
71
3
72
8
73
4
74
0
42
0.000000001
43
0.0000000001
44
0.0000000001
40
0
40
0
40
0
40
0
40
1
40
1
40
1
40
1
10
95.139927420855486
20
72.159943766129402
30
0
10
95.130676663962674
20
72.43744953530647
30
0
10
95.315680510080711
20
72.761206266013062
30
0
10
95.630186483894448
20
72.724203238441717
30
0
0
SPLINE
5
387
100
AcDbEntity
8
0
100
AcDbSpline
70
1064
71
3
72
8
73
4
74
0
42
0.000000001
43
0.0000000001
44
0.0000000001
40
0
40
0
40
0
40
0
40
1
40
1
40
1
40
1
10
95.630186483894448
20
72.724203238441717
30
0
10
95.963193971493865
20
72.733451172399882
30
0
10
96.083445342296727
20
72.363443480163795
30
0
10
96.074194585403916
20
72.085937710986727
30
0
0
SPLINE
5
388
100
AcDbEntity
8
0
100
AcDbSpline
70
1064
71
3
72
8
73
4
74
0
42
0.000000001
43
0.0000000001
44
0.0000000001
40
0
40
0
40
0
40
0
40
1
40
1
40
1
40
1
10
96.074194585403916
20
72.085937710986727
30
0
10
96.074194585403916
20
71.262673983283008
30
0
10
96.083445342296727
20
70.448658189537468
30
0
10
96.074194585403916
20
69.625388815964428
30
0
0
SPLINE
5
389
100
AcDbEntity
8
0
100
AcDbSpline
70
1064
71
3
72
8
73
4
74
0
42
0.000000001
43
0.0000000001
44
0.0000000001
40
0
40
0
40
0
40
0
40
1
40
1
40
1
40
1
10
96.074194585403916
20
69.625388815964428
30
0
10
95.75968861159015
20
69.625388815964428
30
0
10
95.445182637776398
20
69.625388815964428
30
0
10
95.130676663962674
20
69.634636749922606
30
0
0
SPLINE
5
390
100
AcDbEntity
8
0
100
AcDbSpline
70
1064
71
3
72
8
73
4
74
0
42
0.000000001
43
0.0000000001
44
0.0000000001
40
0
40
0
40
0
40
0
40
1
40
1
40
1
40
1
10
95.130676663962674
20
69.634636749922606
30
0
10
95.139927420855486
20
70.476407637281312
30
0
10
95.112175150176981
20
71.318172878770696
30
0
10
95.139927420855486
20
72.159943766129402
30
0
0
SPLINE
5
391
100
AcDbEntity
8
0
100
AcDbSpline
70
1064
71
3
72
8
73
4
74
0
42
0.000000001
43
0.0000000001
44
0.0000000001
40
0
40
0
40
0
40
0
40
1
40
1
40
1
40
1
10
82.46716396176933
20
68.330361893138104
30
0
10
82.587415332572192
20
68.681868071588525
30
0
10
83.15167762781914
20
68.681868071588525
30
0
10
83.281179755514856
20
68.339609827096282
30
0
0
SPLINE
5
392
100
AcDbEntity
8
0
100
AcDbSpline
70
1064
71
3
72
8
73
4
74
0
42
0.000000001
43
0.0000000001
44
0.0000000001
40
0
40
0
40
0
40
0
40
1
40
1
40
1
40
1
10
83.281179755514856
20
68.339609827096282
30
0
10
83.401431126317718
20
68.015853096389691
30
0
10
83.336681473937205
20
67.655098983981105
30
0
10
83.355180164788209
20
67.312840739488848
30
0
0
SPLINE
5
393
100
AcDbEntity
8
0
100
AcDbSpline
70
1064
71
3
72
8
73
4
74
0
42
0.000000001
43
0.0000000001
44
0.0000000001
40
0
40
0
40
0
40
0
40
1
40
1
40
1
40
1
10
83.355180164788209
20
67.312840739488848
30
0
10
83.040674190974471
20
67.312840739488848
30
0
10
82.726168217160705
20
67.312840739488848
30
0
10
82.411662243346967
20
67.312840739488848
30
0
0
SPLINE
5
394
100
AcDbEntity
8
0
100
AcDbSpline
70
1064
71
3
72
8
73
4
74
0
42
0.000000001
43
0.0000000001
44
0.0000000001
40
0
40
0
40
0
40
0
40
1
40
1
40
1
40
1
10
82.411662243346967
20
67.312840739488848
30
0
10
82.420913000239793
20
67.655098983981105
30
0
10
82.365411281817444
20
68.006605162431526
30
0
10
82.46716396176933
20
68.330361893138104
30
0
0
SPLINE
5
395
100
AcDbEntity
8
0
100
AcDbSpline
70
1064
71
3
72
8
73
4
74
0
42
0.000000001
43
0.0000000001
44
0.0000000001
40
0
40
0
40
0
40
0
40
1
40
1
40
1
40
1
10
85.029465536743459
20
68.348863406923769
30
0
10
85.149719730480982
20
68.66336655780286
30
0
10
85.676978998156628
20
68.691121651416026
30
0
10
85.815731882745155
20
68.367364920709448
30
0
0
SPLINE
5
396
100
AcDbEntity
8
0
100
AcDbSpline
70
1064
71
3
72
8
73
4
74
0
42
0.000000001
43
0.0000000001
44
0.0000000001
40
0
40
0
40
0
40
0
40
1
40
1
40
1
40
1
10
85.815731882745155
20
68.367364920709448
30
0
10
85.954484767333682
20
68.043608190002857
30
0
10
85.871233601167503
20
67.67360049776677
30
0
10
85.908233805804173
20
67.322088673447027
30
0
0
SPLINE
5
397
100
AcDbEntity
8
0
100
AcDbSpline
70
1064
71
3
72
8
73
4
74
0
42
0.000000001
43
0.0000000001
44
0.0000000001
40
0
40
0
40
0
40
0
40
1
40
1
40
1
40
1
10
85.908233805804173
20
67.322088673447027
30
0
10
85.584477075097595
20
67.312840739488848
30
0
10
85.269971101283843
20
67.322088673447027
30
0
10
84.955465127470106
20
67.312840739488848
30
0
0
SPLINE
5
398
100
AcDbEntity
8
0
100
AcDbSpline
70
1064
71
3
72
8
73
4
74
0
42
0.000000001
43
0.0000000001
44
0.0000000001
40
0
40
0
40
0
40
0
40
1
40
1
40
1
40
1
10
84.955465127470106
20
67.312840739488848
30
0
10
84.97396381832111
20
67.655098983981105
30
0
10
84.899963409047757
20
68.025106676217192
30
0
10
85.029465536743459
20
68.348863406923769
30
0
0
SPLINE
5
399
100
AcDbEntity
8
0
100
AcDbSpline
70
1064
71
3
72
8
73
4
74
0
42
0.000000001
43
0.0000000001
44
0.0000000001
40
0
40
0
40
0
40
0
40
1
40
1
40
1
40
1
10
87.554769730015607
20
68.311860379352439
30
0
10
87.665770343925615
20
68.672620137630361
30
0
10
88.239283396065417
20
68.700369585374204
30
0
10
88.378036280653959
20
68.348863406923769
30
0
0
SPLINE
5
400
100
AcDbEntity
8
0
100
AcDbSpline
70
1064
71
3
72
8
73
4
74
0
42
0.000000001
43
0.0000000001
44
0.0000000001
40
0
40
0
40
0
40
0
40
1
40
1
40
1
40
1
10
88.378036280653959
20
68.348863406923769
30
0
10
88.498287651456849
20
68.015853096389691
30
0
10
88.424287242183482
20
67.655098983981105
30
0
10
88.442785933034486
20
67.322088673447027
30
0
0
SPLINE
5
401
100
AcDbEntity
8
0
100
AcDbSpline
70
1064
71
3
72
8
73
4
74
0
42
0.000000001
43
0.0000000001
44
0.0000000001
40
0
40
0
40
0
40
0
40
1
40
1
40
1
40
1
10
88.442785933034486
20
67.322088673447027
30
0
10
88.128279959220748
20
67.312840739488848
30
0
10
87.813773985406982
20
67.312840739488848
30
0
10
87.499268011593244
20
67.312840739488848
30
0
0
SPLINE
5
402
100
AcDbEntity
8
0
100
AcDbSpline
70
1064
71
3
72
8
73
4
74
0
42
0.000000001
43
0.0000000001
44
0.0000000001
40
0
40
0
40
0
40
0
40
1
40
1
40
1
40
1
10
87.499268011593244
20
67.312840739488848
30
0
10
87.517766702444248
20
67.645845404153604
30
0
10
87.453017050063721
20
67.988103648645847
30
0
10
87.554769730015607
20
68.311860379352439
30
0
0
SPLINE
5
403
100
AcDbEntity
8
0
100
AcDbSpline
70
1064
71
3
72
8
73
4
74
0
42
0.000000001
43
0.0000000001
44
0.0000000001
40
0
40
0
40
0
40
0
40
1
40
1
40
1
40
1
10
90.107820548096896
20
68.339609827096282
30
0
10
90.237325498727259
20
68.66336655780286
30
0
10
90.746086075551901
20
68.691121651416026
30
0
10
90.894086894098592
20
68.376612854667627
30
0
0
SPLINE
5
404
100
AcDbEntity
8
0
100
AcDbSpline
70
1064
71
3
72
8
73
4
74
0
42
0.000000001
43
0.0000000001
44
0.0000000001
40
0
40
0
40
0
40
0
40
1
40
1
40
1
40
1
10
90.894086894098592
20
68.376612854667627
30
0
10
91.060592049365638
20
68.052856123961035
30
0
10
90.949588612520955
20
67.66434691793927
30
0
10
90.986588817157624
20
67.312840739488848
30
0
0
SPLINE
5
405
100
AcDbEntity
8
0
100
AcDbSpline
70
1064
71
3
72
8
73
4
74
0
42
0.000000001
43
0.0000000001
44
0.0000000001
40
0
40
0
40
0
40
0
40
1
40
1
40
1
40
1
10
90.986588817157624
20
67.312840739488848
30
0
10
90.672082843343873
20
67.312840739488848
30
0
10
90.357576869530121
20
67.312840739488848
30
0
10
90.043070895716383
20
67.312840739488848
30
0
0
SPLINE
5
406
100
AcDbEntity
8
0
100
AcDbSpline
70
1064
71
3
72
8
73
4
74
0
42
0.000000001
43
0.0000000001
44
0.0000000001
40
0
40
0
40
0
40
0
40
1
40
1
40
1
40
1
10
90.043070895716383
20
67.312840739488848
30
0
10
90.052321652609223
20
67.655098983981105
30
0
10
89.996819934186874
20
68.015853096389691
30
0
10
90.107820548096896
20
68.339609827096282
30
0
0
SPLINE
5
407
100
AcDbEntity
8
0
100
AcDbSpline
70
1064
71
3
72
8
73
4
74
0
42
0.000000001
43
0.0000000001
44
0.0000000001
40
0
40
0
40
0
40
0
40
1
40
1
40
1
40
1
10
92.642375498261885
20
68.311860379352439
30
0
10
92.744125355279067
20
68.672620137630361
30
0
10
93.326889164311694
20
68.691121651416026
30
0
10
93.465642048900264
20
68.348863406923769
30
0
0
SPLINE
5
408
100
AcDbEntity
8
0
100
AcDbSpline
70
1064
71
3
72
8
73
4
74
0
42
0.000000001
43
0.0000000001
44
0.0000000001
40
0
40
0
40
0
40
0
40
1
40
1
40
1
40
1
10
93.465642048900264
20
68.348863406923769
30
0
10
93.585893419703126
20
68.015853096389691
30
0
10
93.521143767322599
20
67.655098983981105
30
0
10
93.530391701280763
20
67.312840739488848
30
0
0
SPLINE
5
409
100
AcDbEntity
8
0
100
AcDbSpline
70
1064
71
3
72
8
73
4
74
0
42
0.000000001
43
0.0000000001
44
0.0000000001
40
0
40
0
40
0
40
0
40
1
40
1
40
1
40
1
10
93.530391701280763
20
67.312840739488848
30
0
10
93.215885727467025
20
67.312840739488848
30
0
10
92.901379753653273
20
67.312840739488848
30
0
10
92.586873779839522
20
67.312840739488848
30
0
0
SPLINE
5
410
100
AcDbEntity
8
0
100
AcDbSpline
70
1064
71
3
72
8
73
4
74
0
42
0.000000001
43
0.0000000001
44
0.0000000001
40
0
40
0
40
0
40
0
40
1
40
1
40
1
40
1
10
92.586873779839522
20
67.312840739488848
30
0
10
92.596124536732361
20
67.645845404153604
30
0
10
92.549873575202852
20
67.988103648645847
30
0
10
92.642375498261885
20
68.311860379352439
30
0
0
SPLINE
5
411
100
AcDbEntity
8
0
100
AcDbSpline
70
1064
71
3
72
8
73
4
74
0
42
0.000000001
43
0.0000000001
44
0.0000000001
40
0
40
0
40
0
40
0
40
1
40
1
40
1
40
1
10
95.204677073236013
20
68.348863406923769
30
0
10
95.343429957824554
20
68.691121651416026
30
0
10
95.916943009964371
20
68.672620137630361
30
0
10
96.0186956899162
20
68.311860379352439
30
0
0
SPLINE
5
412
100
AcDbEntity
8
0
100
AcDbSpline
70
1064
71
3
72
8
73
4
74
0
42
0.000000001
43
0.0000000001
44
0.0000000001
40
0
40
0
40
0
40
0
40
1
40
1
40
1
40
1
10
96.0186956899162
20
68.311860379352439
30
0
10
96.120445546933411
20
67.997357228473362
30
0
10
96.064946651445737
20
67.645845404153604
30
0
10
96.083445342296727
20
67.322088673447027
30
0
0
SPLINE
5
413
100
AcDbEntity
8
0
100
AcDbSpline
70
1064
71
3
72
8
73
4
74
0
42
0.000000001
43
0.0000000001
44
0.0000000001
40
0
40
0
40
0
40
0
40
1
40
1
40
1
40
1
10
96.083445342296727
20
67.322088673447027
30
0
10
95.75968861159015
20
67.312840739488848
30
0
10
95.445182637776398
20
67.312840739488848
30
0
10
95.130676663962674
20
67.312840739488848
30
0
0
SPLINE
5
414
100
AcDbEntity
8
0
100
AcDbSpline
70
1064
71
3
72
8
73
4
74
0
42
0.000000001
43
0.0000000001
44
0.0000000001
40
0
40
0
40
0
40
0
40
1
40
1
40
1
40
1
10
95.130676663962674
20
67.312840739488848
30
0
10
95.149175354813664
20
67.655098983981105
30
0
10
95.075174945540311
20
68.025106676217192
30
0
10
95.204677073236013
20
68.348863406923769
30
0
0
LINE
5
415
100
AcDbEntity
8
0
100
AcDbLine
10
60.386953798406601
20
51.726266704043439
30
0
11
60.386953798406601
21
33.726266704043439
31
0
0
LINE
5
416
100
AcDbEntity
8
0
100
AcDbLine
10
60.386953798406601
20
33.726266704043439
30
0
11
63.614458503445981
21
33.726266704043439
31
0
0
LINE
5
417
100
AcDbEntity
8
0
100
AcDbLine
10
119.12567494088636
20
51.726266704043439
30
0
11
119.13958189766647
21
33.726266704043439
31
0
0
LINE
5
418
100
AcDbEntity
8
0
100
AcDbLine
10
84.196948229212282
20
51.726266704043439
30
0
11
95.47293208552027
21
51.726266704043439
31
0
0
LINE
5
419
100
AcDbEntity
8
0
100
AcDbLine
10
63.614458503445981
20
33.726266704043439
30
0
11
65
21
33.726266704043439
31
0
0
LINE
5
420
100
AcDbEntity
8
0
100
AcDbLine
10
65
20
33.726266704043439
30
0
11
119.13958189766647
21
33.726266704043439
31
0
0
ENDSEC
0
SECTION
2
OBJECTS
0
DICTIONARY
5
C
100
AcDbDictionary
3
ACAD_GROUP
350
D
3
ACAD_MLINESTYLE
350
17
0
DICTIONARY
5
D
100
AcDbDictionary
0
DICTIONARY
5
1A
330
C
100
AcDbDictionary
0
DICTIONARY
5
17
100
AcDbDictionary
0
ENDSEC
0
EOF
