0
SECTION
2
HEADER
9
$INSUNITS
70
4
9
$ACADVER
1
AC1014
9
$HANDSEED
5
FFFF
0
ENDSEC
0
SECTION
2
TABLES
0
TABLE
2
VPORT
5
8
100
AcDbSymbolTable
0
ENDTAB
0
TABLE
2
LTYPE
5
5
100
AcDbSymbolTable
0
LTYPE
5
14
100
AcDbSymbolTableRecord
100
AcDbLinetypeTableRecord
2
BYBLOCK
70
0
0
LTYPE
5
15
100
AcDbSymbolTableRecord
100
AcDbLinetypeTableRecord
2
BYLAYER
70
0
0
ENDTAB
0
TABLE
2
LAYER
5
2
100
AcDbSymbolTable
70
2
0
LAYER
5
50
100
AcDbSymbolTableRecord
100
AcDbLayerTableRecord
2
0
70
0
6
CONTINUOUS
0
ENDTAB
0
TABLE
2
STYLE
5
3
100
AcDbSymbolTable
70
1
0
STYLE
5
11
100
AcDbSymbolTableRecord
100
AcDbTextStyleTableRecord
2
STANDARD
70
0
0
ENDTAB
0
TABLE
2
VIEW
5
6
100
AcDbSymbolTable
70
0
0
ENDTAB
0
TABLE
2
UCS
5
7
100
AcDbSymbolTable
70
0
0
ENDTAB
0
TABLE
2
APPID
5
9
100
AcDbSymbolTable
70
2
0
APPID
5
12
100
AcDbSymbolTableRecord
100
AcDbRegAppTableRecord
2
ACAD
70
0
0
ENDTAB
0
TABLE
2
DIMSTYLE
5
A
100
AcDbSymbolTable
70
1
0
ENDTAB
0
TABLE
2
BLOCK_RECORD
5
1
100
AcDbSymbolTable
70
1
0
BLOCK_RECORD
5
1F
100
AcDbSymbolTableRecord
100
AcDbBlockTableRecord
2
*MODEL_SPACE
0
BLOCK_RECORD
5
1B
100
AcDbSymbolTableRecord
100
AcDbBlockTableRecord
2
*PAPER_SPACE
0
ENDTAB
0
ENDSEC
0
SECTION
2
BLOCKS
0
BLOCK
5
20
100
AcDbEntity
100
AcDbBlockBegin
2
*MODEL_SPACE
0
ENDBLK
5
21
100
AcDbEntity
100
AcDbBlockEnd
0
BLOCK
5
1C
100
AcDbEntity
100
AcDbBlockBegin
2
*PAPER_SPACE
0
ENDBLK
5
1D
100
AcDbEntity
100
AcDbBlockEnd
0
ENDSEC
0
SECTION
2
ENTITIES
0
SPLINE
5
100
100
AcDbEntity
8
0
100
AcDbSpline
70
1064
71
3
72
8
73
4
74
0
42
0.000000001
43
0.0000000001
44
0.0000000001
40
0
40
0
40
0
40
0
40
1
40
1
40
1
40
1
10
297.97938325589121
20
-61.6039191129654
30
0
10
302.22964058704036
20
-61.725367445777977
30
0
10
304.96026892667521
20
-64.887405038531924
30
0
10
313.93832489170188
20
-57.534205591195182
30
0
0
LINE
5
101
100
AcDbEntity
8
0
100
AcDbLine
10
313.93832489170188
20
-57.534205591195182
30
0
11
314.01592959290588
21
-57.533175493617449
31
0
0
SPLINE
5
102
100
AcDbEntity
8
0
100
AcDbSpline
70
1064
71
3
72
8
73
4
74
0
42
0.000000001
43
0.0000000001
44
0.0000000001
40
0
40
0
40
0
40
0
40
1
40
1
40
1
40
1
10
361.48454936584233
20
-115.24901581574161
30
0
10
361.864463694981
20
-111.01402568152611
30
0
10
360.8096014128422
20
-103.1430633736766
30
0
10
366.90137349794435
20
-99.124514317078678
30
0
0
LINE
5
103
100
AcDbEntity
8
0
100
AcDbLine
10
366.90137349794441
20
-99.124514317078678
30
0
11
366.92620620822964
21
-99.085492018221686
31
0
0
SPLINE
5
104
100
AcDbEntity
8
0
100
AcDbSpline
70
1064
71
3
72
8
73
4
74
0
42
0.000000001
43
0.0000000001
44
0.0000000001
40
0
40
0
40
0
40
0
40
1
40
1
40
1
40
1
10
369.75572561532744
20
-105.95738276687982
30
0
10
370.13563994446611
20
-101.72239263266428
30
0
10
369.08077766232742
20
-93.851430324814785
30
0
10
375.1725497474294
20
-89.83288126821688
30
0
0
LINE
5
105
100
AcDbEntity
8
0
100
AcDbLine
10
375.17254974742946
20
-89.832881268216852
30
0
11
375.61005680074487
21
-89.145368175708455
31
0
0
SPLINE
5
106
100
AcDbEntity
8
0
100
AcDbSpline
70
1064
71
3
72
8
73
4
74
0
42
0.000000001
43
0.0000000001
44
0.0000000001
40
0
40
0
40
0
40
0
40
1
40
1
40
1
40
1
10
378.35802159051701
20
-96.463999894839972
30
0
10
378.7379359196558
20
-92.22900976062445
30
0
10
377.41583632025606
20
-85.426968396777852
30
0
10
383.50760840535821
20
-81.408419340179904
30
0
0
LINE
5
107
100
AcDbEntity
8
0
100
AcDbLine
10
383.50760840535821
20
-81.408419340179904
30
0
11
383.53840767349772
21
-81.287662972740037
31
0
0
SPLINE
5
108
100
AcDbEntity
8
0
100
AcDbSpline
70
1064
71
3
72
8
73
4
74
0
42
0.000000001
43
0.0000000001
44
0.0000000001
40
0
40
0
40
0
40
0
40
1
40
1
40
1
40
1
10
385.91453817995017
20
-87.086541972677509
30
0
10
383.84252368651551
20
-66.976442881423168
30
0
10
409.24392921287972
20
-64.5503181709214
30
0
10
406.06323485998922
20
-76.258067749240013
30
0
0
SPLINE
5
109
100
AcDbEntity
8
0
100
AcDbSpline
70
1064
71
3
72
8
73
4
74
0
42
0.000000001
43
0.0000000001
44
0.0000000001
40
0
40
0
40
0
40
0
40
1
40
1
40
1
40
1
10
406.06323485998922
20
-76.258067749240013
30
0
10
407.939882106082
20
-76.778172146450089
30
0
10
410.23732615671418
20
-76.328238316717517
30
0
10
413.12107966633687
20
-74.498440687931435
30
0
0
SPLINE
5
110
100
AcDbEntity
8
0
100
AcDbSpline
70
1064
71
3
72
8
73
4
74
0
42
0.000000001
43
0.0000000001
44
0.0000000001
40
0
40
0
40
0
40
0
40
1
40
1
40
1
40
1
10
413.12107966633687
20
-74.498440687931435
30
0
10
410.06652616133363
20
-76.376428652617008
30
0
10
410.06280613932262
20
-78.44097477698881
30
0
10
410.3559514271376
20
-81.556285494279095
30
0
0
SPLINE
5
111
100
AcDbEntity
8
0
100
AcDbSpline
70
1064
71
3
72
8
73
4
74
0
42
0.000000001
43
0.0000000001
44
0.0000000001
40
0
40
0
40
0
40
0
40
1
40
1
40
1
40
1
10
410.3559514271376
20
-81.556285494279095
30
0
10
411.01160058574527
20
-79.124231408592181
30
0
10
413.11260103748936
20
-78.126831192339822
30
0
10
416.19559288334864
20
-76.741481777072053
30
0
0
SPLINE
5
112
100
AcDbEntity
8
0
100
AcDbSpline
70
1064
71
3
72
8
73
4
74
0
42
0.000000001
43
0.0000000001
44
0.0000000001
40
0
40
0
40
0
40
0
40
1
40
1
40
1
40
1
10
416.19559288334864
20
-76.741481777072053
30
0
10
418.36098559426864
20
-75.768469420856633
30
0
10
421.33675771942364
20
-70.526722365279738
30
0
10
418.12924899467669
20
-69.103540137325979
30
0
0
SPLINE
5
113
100
AcDbEntity
8
0
100
AcDbSpline
70
1064
71
3
72
8
73
4
74
0
42
0.000000001
43
0.0000000001
44
0.0000000001
40
0
40
0
40
0
40
0
40
1
40
1
40
1
40
1
10
418.12924899467669
20
-69.103540137325979
30
0
10
409.16854683791479
20
-65.127648592012122
30
0
10
400.75514111742842
20
-61.458536120767008
30
0
10
395.5441456143642
20
-52.976848168849401
30
0
0
SPLINE
5
114
100
AcDbEntity
8
0
100
AcDbSpline
70
1064
71
2
72
6
73
3
74
0
42
0.000000001
43
0.0000000001
44
0.0000000001
40
0
40
0
40
0
40
1
40
1
40
1
10
395.5441456143642
20
-52.976848168849401
30
0
10
401.46496663720211
20
-46.088981931702122
30
0
10
404.94171431541895
20
-46.093032412521275
30
0
0
SPLINE
5
115
100
AcDbEntity
8
0
100
AcDbSpline
70
1064
71
3
72
8
73
4
74
0
42
0.000000001
43
0.0000000001
44
0.0000000001
40
0
40
0
40
0
40
0
40
1
40
1
40
1
40
1
10
404.94171431541895
20
-46.093032412521275
30
0
10
412.8778431002234
20
-46.10224749242682
30
0
10
423.67614171364232
20
-56.718482185949561
30
0
10
431.39412991838765
20
-52.957511607736116
30
0
0
SPLINE
5
116
100
AcDbEntity
8
0
100
AcDbSpline
70
1064
71
3
72
8
73
4
74
0
42
0.000000001
43
0.0000000001
44
0.0000000001
40
0
40
0
40
0
40
0
40
1
40
1
40
1
40
1
10
418.3419511669228
20
-34.471759183439239
30
0
10
416.22180298767012
20
-34.615971407288981
30
0
10
412.25877101083097
20
-28.404847042385633
30
0
10
411.61282789950099
20
-28.380742432755643
30
0
0
SPLINE
5
117
100
AcDbEntity
8
0
100
AcDbSpline
70
1064
71
3
72
8
73
4
74
0
42
0.000000001
43
0.0000000001
44
0.0000000001
40
0
40
0
40
0
40
0
40
1
40
1
40
1
40
1
10
411.61282789950099
20
-28.380742432755643
30
0
10
408.4838739542767
20
-28.263996056698165
30
0
10
394.59015824381447
20
-25.163820352818334
30
0
10
390.16858162487199
20
-23.005178443263461
30
0
0
SPLINE
5
118
100
AcDbEntity
8
0
100
AcDbSpline
70
1064
71
3
72
8
73
4
74
0
42
0.000000001
43
0.0000000001
44
0.0000000001
40
0
40
0
40
0
40
0
40
1
40
1
40
1
40
1
10
390.16858162487199
20
-23.005178443263461
30
0
10
389.75148595898315
20
-22.801549725719443
30
0
10
388.93462955210987
20
-22.822793506239414
30
0
10
388.50563736912983
20
-23.02448667933605
30
0
0
SPLINE
5
119
100
AcDbEntity
8
0
100
AcDbSpline
70
1064
71
3
72
8
73
4
74
0
42
0.000000001
43
0.0000000001
44
0.0000000001
40
0
40
0
40
0
40
0
40
1
40
1
40
1
40
1
10
388.50563736912983
20
-23.02448667933605
30
0
10
377.5662422863374
20
-28.168880570050121
30
0
10
365.50895226418345
20
-22.580888217038538
30
0
10
362.98137669959857
20
-19.060491651113395
30
0
0
SPLINE
5
120
100
AcDbEntity
8
0
100
AcDbSpline
70
1064
71
3
72
8
73
4
74
0
42
0.000000001
43
0.0000000001
44
0.0000000001
40
0
40
0
40
0
40
0
40
1
40
1
40
1
40
1
10
376.07222857328998
20
-33.23422871386947
30
0
10
378.10647634580016
20
-36.705481334191781
30
0
10
381.74713159282879
20
-38.11924076527491
30
0
10
382.6659959129189
20
-34.123710525080412
30
0
0
SPLINE
5
121
100
AcDbEntity
8
0
100
AcDbSpline
70
1064
71
3
72
8
73
4
74
0
42
0.000000001
43
0.0000000001
44
0.0000000001
40
0
40
0
40
0
40
0
40
1
40
1
40
1
40
1
10
382.6659959129189
20
-34.123710525080412
30
0
10
385.0053421404167
20
-40.626120166793243
30
0
10
389.46004017360974
20
-37.771683074288106
30
0
10
391.59948714725482
20
-40.369419764670255
30
0
0
SPLINE
5
122
100
AcDbEntity
8
0
100
AcDbSpline
70
1064
71
3
72
8
73
4
74
0
42
0.000000001
43
0.0000000001
44
0.0000000001
40
0
40
0
40
0
40
0
40
1
40
1
40
1
40
1
10
391.59948714725482
20
-40.369419764670255
30
0
10
389.16661163538777
20
-41.090518650639858
30
0
10
388.42649720543278
20
-42.560446637417769
30
0
10
387.86753085239155
20
-44.101376059533528
30
0
0
SPLINE
5
123
100
AcDbEntity
8
0
100
AcDbSpline
70
1064
71
3
72
8
73
4
74
0
42
0.000000001
43
0.0000000001
44
0.0000000001
40
0
40
0
40
0
40
0
40
1
40
1
40
1
40
1
10
387.86753085239155
20
-44.101376059533528
30
0
10
385.39286646382175
20
-41.274905223872892
30
0
10
380.86930081502305
20
-40.459767202801594
30
0
10
376.53630604000875
20
-42.844499587170255
30
0
0
SPLINE
5
124
100
AcDbEntity
8
0
100
AcDbSpline
70
1064
71
3
72
8
73
4
74
0
42
0.000000001
43
0.0000000001
44
0.0000000001
40
0
40
0
40
0
40
0
40
1
40
1
40
1
40
1
10
376.53630604000875
20
-42.844499587170255
30
0
10
375.70362537706808
20
-40.831099044610312
30
0
10
372.91381658574471
20
-37.27798705668441
30
0
10
370.96737643938366
20
-40.582121936916344
30
0
0
SPLINE
5
125
100
AcDbEntity
8
0
100
AcDbSpline
70
1064
71
3
72
8
73
4
74
0
42
0.000000001
43
0.0000000001
44
0.0000000001
40
0
40
0
40
0
40
0
40
1
40
1
40
1
40
1
10
370.96737643938366
20
-40.582121936916344
30
0
10
370.07615735901027
20
-38.333227006032438
30
0
10
368.89853435050679
20
-38.937994949874728
30
0
10
368.27959444463767
20
-39.383255147892918
30
0
0
SPLINE
5
126
100
AcDbEntity
8
0
100
AcDbSpline
70
1064
71
3
72
8
73
4
74
0
42
0.000000001
43
0.0000000001
44
0.0000000001
40
0
40
0
40
0
40
0
40
1
40
1
40
1
40
1
10
368.27959444463767
20
-39.383255147892918
30
0
10
369.48767631356668
20
-37.550426739752645
30
0
10
368.03658447884976
20
-36.529422322922549
30
0
10
366.9647082889345
20
-35.380586997443693
30
0
0
SPLINE
5
127
100
AcDbEntity
8
0
100
AcDbSpline
70
1064
71
3
72
8
73
4
74
0
42
0.000000001
43
0.0000000001
44
0.0000000001
40
0
40
0
40
0
40
0
40
1
40
1
40
1
40
1
10
366.9647082889345
20
-35.380586997443693
30
0
10
369.21838071001531
20
-36.885534176198746
30
0
10
373.1488577734176
20
-37.526104971477345
30
0
10
370.17457743373916
20
-33.852998669494468
30
0
0
SPLINE
5
128
100
AcDbEntity
8
0
100
AcDbSpline
70
1064
71
3
72
8
73
4
74
0
42
0.000000001
43
0.0000000001
44
0.0000000001
40
0
40
0
40
0
40
0
40
1
40
1
40
1
40
1
10
370.17457743373916
20
-33.852998669494468
30
0
10
375.08351470285021
20
-38.018252553523133
30
0
10
377.0584120734278
20
-35.769640873046164
30
0
10
376.07222857328998
20
-33.23422871386947
30
0
0
SPLINE
5
129
100
AcDbEntity
8
0
100
AcDbSpline
70
1064
71
3
72
8
73
4
74
0
42
0.000000001
43
0.0000000001
44
0.0000000001
40
0
40
0
40
0
40
0
40
1
40
1
40
1
40
1
10
401.1089964091293
20
-34.668240549048306
30
0
10
406.08530950836951
20
-36.096445750885032
30
0
10
405.58650554176074
20
-37.488829217924973
30
0
10
409.09174821091506
20
-38.144695535177952
30
0
0
SPLINE
5
130
100
AcDbEntity
8
0
100
AcDbSpline
70
1064
71
3
72
8
73
4
74
0
42
0.000000001
43
0.0000000001
44
0.0000000001
40
0
40
0
40
0
40
0
40
1
40
1
40
1
40
1
10
134.9579929351807
20
-13.37694713274638
30
0
10
141.71144053141279
20
-10.920047680536909
30
0
10
155.97566998799644
20
-13.992349855105084
30
0
10
167.27346229553223
20
-14.158615748087566
30
0
0
SPLINE
5
131
100
AcDbEntity
8
0
100
AcDbSpline
70
1064
71
3
72
8
73
4
74
0
42
0.000000001
43
0.0000000001
44
0.0000000001
40
0
40
0
40
0
40
0
40
1
40
1
40
1
40
1
10
167.27346229553223
20
-14.158615748087566
30
0
10
166.82662264506024
20
-10.465684668223066
30
0
10
152.56174723307294
20
-7.8909518480300909
30
0
10
145.20589777628584
20
-4.7571204026540128
30
0
0
SPLINE
5
132
100
AcDbEntity
8
0
100
AcDbSpline
70
1064
71
3
72
8
73
4
74
0
42
0.000000001
43
0.0000000001
44
0.0000000001
40
0
40
0
40
0
40
0
40
1
40
1
40
1
40
1
10
145.20589777628584
20
-4.7571204026540128
30
0
10
140.13912048339844
20
-7.1120668967564917
30
0
10
137.31437365214032
20
-10.170973571141563
30
0
10
134.9579929351807
20
-13.37694713274638
30
0
0
SPLINE
5
133
100
AcDbEntity
8
0
100
AcDbSpline
70
1064
71
3
72
8
73
4
74
0
42
0.000000001
43
0.0000000001
44
0.0000000001
40
0
40
0
40
0
40
0
40
1
40
1
40
1
40
1
10
141.91481959025066
20
-36.616212177276616
30
0
10
142.62630716959637
20
-35.285794353485109
30
0
10
144.33473002115886
20
-34.351250298817959
30
0
10
144.92282396952314
20
-32.858449379603073
30
0
0
SPLINE
5
134
100
AcDbEntity
8
0
100
AcDbSpline
70
1064
71
3
72
8
73
4
74
0
42
0.000000001
43
0.0000000001
44
0.0000000001
40
0
40
0
40
0
40
0
40
1
40
1
40
1
40
1
10
144.92282396952314
20
-32.858449379603073
30
0
10
145.91727231343589
20
-30.334162648518884
30
0
10
139.32169621785482
20
-30.575326061248784
30
0
10
139.32683156331382
20
-32.11655546824138
30
0
0
SPLINE
5
135
100
AcDbEntity
8
0
100
AcDbSpline
70
1064
71
3
72
8
73
4
74
0
42
0.000000001
43
0.0000000001
44
0.0000000001
40
0
40
0
40
0
40
0
40
1
40
1
40
1
40
1
10
139.32683156331382
20
-32.11655546824138
30
0
10
139.33350105285646
20
-34.115940856933598
30
0
10
141.10416170756022
20
-35.255587863922123
30
0
10
141.91481959025066
20
-36.616212177276616
30
0
0
SPLINE
5
136
100
AcDbEntity
8
0
100
AcDbSpline
70
1064
71
3
72
8
73
4
74
0
42
0.000000001
43
0.0000000001
44
0.0000000001
40
0
40
0
40
0
40
0
40
1
40
1
40
1
40
1
10
147.76814448038738
20
-36.214262390136724
30
0
10
148.59456367492677
20
-34.952021121978767
30
0
10
149.77107454935714
20
-34.687268225351971
30
0
10
150.50978914896649
20
-33.262978951136276
30
0
0
SPLINE
5
137
100
AcDbEntity
8
0
100
AcDbSpline
70
1064
71
3
72
8
73
4
74
0
42
0.000000001
43
0.0000000001
44
0.0000000001
40
0
40
0
40
0
40
0
40
1
40
1
40
1
40
1
10
150.50978914896649
20
-33.262978951136276
30
0
10
151.44700584411623
20
-31.455969174702965
30
0
10
146.02400029500328
20
-30.462231381734213
30
0
10
145.71731681823732
20
-31.817029984792079
30
0
0
SPLINE
5
138
100
AcDbEntity
8
0
100
AcDbSpline
70
1064
71
3
72
8
73
4
74
0
42
0.000000001
43
0.0000000001
44
0.0000000001
40
0
40
0
40
0
40
0
40
1
40
1
40
1
40
1
10
145.71731681823732
20
-31.817029984792079
30
0
10
145.27588704427086
20
-33.767088603973392
30
0
10
147.08107401529952
20
-34.787250010172535
30
0
10
147.76814448038738
20
-36.214262390136724
30
0
0
SPLINE
5
139
100
AcDbEntity
8
0
100
AcDbSpline
70
1064
71
3
72
8
73
4
74
0
42
0.000000001
43
0.0000000001
44
0.0000000001
40
0
40
0
40
0
40
0
40
1
40
1
40
1
40
1
10
152.50806833902996
20
-35.449374485015873
30
0
10
153.37550570170089
20
-34.49019934336345
30
0
10
154.45869216918948
20
-33.734195343653369
30
0
10
154.699924214681
20
-32.789780282974249
30
0
0
SPLINE
5
140
100
AcDbEntity
8
0
100
AcDbSpline
70
1064
71
3
72
8
73
4
74
0
42
0.000000001
43
0.0000000001
44
0.0000000001
40
0
40
0
40
0
40
0
40
1
40
1
40
1
40
1
10
154.699924214681
20
-32.789780282974249
30
0
10
155.10771586100265
20
-31.193358023961387
30
0
10
151.53501726786297
20
-30.814242760340377
30
0
10
151.35484415690107
20
-32.278655958175662
30
0
0
SPLINE
5
141
100
AcDbEntity
8
0
100
AcDbSpline
70
1064
71
3
72
8
73
4
74
0
42
0.000000001
43
0.0000000001
44
0.0000000001
40
0
40
0
40
0
40
0
40
1
40
1
40
1
40
1
10
151.35484415690107
20
-32.278655958175662
30
0
10
151.14758936564129
20
-33.96305936177572
30
0
10
152.11212997436525
20
-33.994440682729092
30
0
10
152.50806833902996
20
-35.449374485015873
30
0
0
SPLINE
5
142
100
AcDbEntity
8
0
100
AcDbSpline
70
1064
71
3
72
8
73
4
74
0
42
0.000000001
43
0.0000000001
44
0.0000000001
40
0
40
0
40
0
40
0
40
1
40
1
40
1
40
1
10
155.73217709859216
20
-36.003454844156906
30
0
10
158.58431243896487
20
-34.903275712331144
30
0
10
160.35573209126792
20
-33.941754945119229
30
0
10
160.68697802225753
20
-32.112615140279139
30
0
0
SPLINE
5
143
100
AcDbEntity
8
0
100
AcDbSpline
70
1064
71
3
72
8
73
4
74
0
42
0.000000001
43
0.0000000001
44
0.0000000001
40
0
40
0
40
0
40
0
40
1
40
1
40
1
40
1
10
160.68697802225753
20
-32.112615140279139
30
0
10
160.90663515726729
20
-30.899636046091722
30
0
10
155.69766693115236
20
-31.322559197743736
30
0
10
155.44072202046715
20
-31.893765449523933
30
0
0
SPLINE
5
144
100
AcDbEntity
8
0
100
AcDbSpline
70
1064
71
3
72
8
73
4
74
0
42
0.000000001
43
0.0000000001
44
0.0000000001
40
0
40
0
40
0
40
0
40
1
40
1
40
1
40
1
10
155.44072202046715
20
-31.893765449523933
30
0
10
155.08791732788089
20
-32.678098630905154
30
0
10
156.40235582987469
20
-33.907931105295823
30
0
10
155.73217709859216
20
-36.003454844156906
30
0
0
SPLINE
5
145
100
AcDbEntity
8
0
100
AcDbSpline
70
1064
71
3
72
8
73
4
74
0
42
0.000000001
43
0.0000000001
44
0.0000000001
40
0
40
0
40
0
40
0
40
1
40
1
40
1
40
1
10
161.6467224121094
20
-39.679728349049896
30
0
10
164.34854393005372
20
-38.538426081339523
30
0
10
167.06756401062012
20
-34.214852778116864
30
0
10
165.40238787333175
20
-31.284655745824182
30
0
0
SPLINE
5
146
100
AcDbEntity
8
0
100
AcDbSpline
70
1064
71
3
72
8
73
4
74
0
42
0.000000001
43
0.0000000001
44
0.0000000001
40
0
40
0
40
0
40
0
40
1
40
1
40
1
40
1
10
165.40238787333175
20
-31.284655745824182
30
0
10
164.86028594970705
20
-30.33072899182638
30
0
10
160.49994163513188
20
-32.332546806335458
30
0
10
161.49532661437991
20
-32.909990564982095
30
0
0
SPLINE
5
147
100
AcDbEntity
8
0
100
AcDbSpline
70
1064
71
3
72
8
73
4
74
0
42
0.000000001
43
0.0000000001
44
0.0000000001
40
0
40
0
40
0
40
0
40
1
40
1
40
1
40
1
10
161.49532661437991
20
-32.909990564982095
30
0
10
163.51314595540367
20
-34.080554612477627
30
0
10
162.46950810750326
20
-37.067944939931238
30
0
10
161.6467224121094
20
-39.679728349049896
30
0
0
SPLINE
5
148
100
AcDbEntity
8
0
100
AcDbSpline
70
1064
71
3
72
8
73
4
74
0
42
0.000000001
43
0.0000000001
44
0.0000000001
40
0
40
0
40
0
40
0
40
1
40
1
40
1
40
1
10
149.8925787607829
20
-35.366563002268478
30
0
10
150.43235524495446
20
-36.541761779785162
30
0
10
151.63323478698732
20
-37.531595579783129
30
0
10
151.51806093851727
20
-38.845711104075122
30
0
0
SPLINE
5
149
100
AcDbEntity
8
0
100
AcDbSpline
70
1064
71
3
72
8
73
4
74
0
42
0.000000001
43
0.0000000001
44
0.0000000001
40
0
40
0
40
0
40
0
40
1
40
1
40
1
40
1
10
151.51806093851727
20
-38.845711104075122
30
0
10
151.37420667012535
20
-40.487108008066819
30
0
10
147.47525215148929
20
-39.797720177968344
30
0
10
147.69201863606773
20
-38.338276799519861
30
0
0
SPLINE
5
150
100
AcDbEntity
8
0
100
AcDbSpline
70
1064
71
3
72
8
73
4
74
0
42
0.000000001
43
0.0000000001
44
0.0000000001
40
0
40
0
40
0
40
0
40
1
40
1
40
1
40
1
10
147.69201863606773
20
-38.338276799519861
30
0
10
147.88825988769534
20
-37.017128435770672
30
0
10
149.07843271891278
20
-36.635724067687995
30
0
10
149.8925787607829
20
-35.366563002268478
30
0
0
SPLINE
5
151
100
AcDbEntity
8
0
100
AcDbSpline
70
1064
71
3
72
8
73
4
74
0
42
0.000000001
43
0.0000000001
44
0.0000000001
40
0
40
0
40
0
40
0
40
1
40
1
40
1
40
1
10
154.30886281331382
20
-35.015554873148609
30
0
10
155.36637255350752
20
-36.352141571044932
30
0
10
156.84598185221355
20
-38.342305946350102
30
0
10
156.28072242736818
20
-39.293402608235681
30
0
0
SPLINE
5
152
100
AcDbEntity
8
0
100
AcDbSpline
70
1064
71
3
72
8
73
4
74
0
42
0.000000001
43
0.0000000001
44
0.0000000001
40
0
40
0
40
0
40
0
40
1
40
1
40
1
40
1
10
156.28072242736818
20
-39.293402608235681
30
0
10
155.43891334533694
20
-40.709805170694999
30
0
10
151.59095700581869
20
-39.690786298116052
30
0
10
152.10762443542484
20
-38.308748563130706
30
0
0
SPLINE
5
153
100
AcDbEntity
8
0
100
AcDbSpline
70
1064
71
3
72
8
73
4
74
0
42
0.000000001
43
0.0000000001
44
0.0000000001
40
0
40
0
40
0
40
0
40
1
40
1
40
1
40
1
10
152.10762443542484
20
-38.308748563130706
30
0
10
152.54227167765302
20
-37.14608132044475
30
0
10
153.98170255025229
20
-36.543069839477546
30
0
10
154.30886281331382
20
-35.015554873148609
30
0
0
SPLINE
5
154
100
AcDbEntity
8
0
100
AcDbSpline
70
1064
71
3
72
8
73
4
74
0
42
0.000000001
43
0.0000000001
44
0.0000000001
40
0
40
0
40
0
40
0
40
1
40
1
40
1
40
1
10
145.10905291239422
20
-34.042289829254159
30
0
10
146.87231737772626
20
-35.494191678365077
30
0
10
147.50543441772462
20
-37.907779820760098
30
0
10
146.92244351704917
20
-38.848121325174972
30
0
0
SPLINE
5
155
100
AcDbEntity
8
0
100
AcDbSpline
70
1064
71
3
72
8
73
4
74
0
42
0.000000001
43
0.0000000001
44
0.0000000001
40
0
40
0
40
0
40
0
40
1
40
1
40
1
40
1
10
146.92244351704917
20
-38.848121325174972
30
0
10
146.05424715677898
20
-40.248516305287687
30
0
10
141.30962397257488
20
-39.213942019144696
30
0
10
141.85208117167156
20
-37.841823736826584
30
0
0
SPLINE
5
156
100
AcDbEntity
8
0
100
AcDbSpline
70
1064
71
3
72
8
73
4
74
0
42
0.000000001
43
0.0000000001
44
0.0000000001
40
0
40
0
40
0
40
0
40
1
40
1
40
1
40
1
10
141.85208117167156
20
-37.841823736826584
30
0
10
142.30843251546224
20
-36.687497393290208
30
0
10
144.07868944803877
20
-36.384100214640306
30
0
10
145.10905291239422
20
-34.042289829254159
30
0
0
SPLINE
5
157
100
AcDbEntity
8
0
100
AcDbSpline
70
1064
71
3
72
8
73
4
74
0
42
0.000000001
43
0.0000000001
44
0.0000000001
40
0
40
0
40
0
40
0
40
1
40
1
40
1
40
1
10
158.93913574218752
20
-34.884910392761235
30
0
10
160.31600583394373
20
-35.516049194335942
30
0
10
161.30917841593427
20
-38.84337759017945
30
0
10
160.78353220621747
20
-39.416311772664393
30
0
0
SPLINE
5
158
100
AcDbEntity
8
0
100
AcDbSpline
70
1064
71
3
72
8
73
4
74
0
42
0.000000001
43
0.0000000001
44
0.0000000001
40
0
40
0
40
0
40
0
40
1
40
1
40
1
40
1
10
160.78353220621747
20
-39.416311772664393
30
0
10
159.66963055928551
20
-40.630433400472015
30
0
10
156.37856852213542
20
-39.815972455342617
30
0
10
156.96438547770185
20
-38.461783472696943
30
0
0
SPLINE
5
159
100
AcDbEntity
8
0
100
AcDbSpline
70
1064
71
3
72
8
73
4
74
0
42
0.000000001
43
0.0000000001
44
0.0000000001
40
0
40
0
40
0
40
0
40
1
40
1
40
1
40
1
10
156.96438547770185
20
-38.461783472696943
30
0
10
157.45721715291344
20
-37.322560373942068
30
0
10
158.26349868774417
20
-37.071998310089114
30
0
10
158.93913574218752
20
-34.884910392761235
30
0
0
SPLINE
5
160
100
AcDbEntity
8
0
100
AcDbSpline
70
1064
71
3
72
8
73
4
74
0
42
0.000000001
43
0.0000000001
44
0.0000000001
40
0
40
0
40
0
40
0
40
1
40
1
40
1
40
1
10
167.15678660074872
20
-30.933772770563767
30
0
10
169.75525525410973
20
-31.814145390192671
30
0
10
170.5760384877523
20
-37.589884980519621
30
0
10
168.37891807556156
20
-40.254459095001224
30
0
0
SPLINE
5
161
100
AcDbEntity
8
0
100
AcDbSpline
70
1064
71
3
72
8
73
4
74
0
42
0.000000001
43
0.0000000001
44
0.0000000001
40
0
40
0
40
0
40
0
40
1
40
1
40
1
40
1
10
168.37891807556156
20
-40.254459095001224
30
0
10
167.68089866638184
20
-41.100987688700371
30
0
10
164.12003720601402
20
-40.519906393686938
30
0
10
164.55597635904951
20
-39.126184940338142
30
0
0
SPLINE
5
162
100
AcDbEntity
8
0
100
AcDbSpline
70
1064
71
3
72
8
73
4
74
0
42
0.000000001
43
0.0000000001
44
0.0000000001
40
0
40
0
40
0
40
0
40
1
40
1
40
1
40
1
10
164.55597635904951
20
-39.126184940338142
30
0
10
164.91188163757326
20
-37.988334496816009
30
0
10
165.98478126525879
20
-36.358266035715744
30
0
10
166.44799588521323
20
-34.826092116038005
30
0
0
SPLINE
5
163
100
AcDbEntity
8
0
100
AcDbSpline
70
1064
71
3
72
8
73
4
74
0
42
0.000000001
43
0.0000000001
44
0.0000000001
40
0
40
0
40
0
40
0
40
1
40
1
40
1
40
1
10
166.44799588521323
20
-34.826092116038005
30
0
10
166.9284736633301
20
-33.236831887563071
30
0
10
166.58581047058107
20
-31.856197086970013
30
0
10
167.15678660074872
20
-30.933772770563767
30
0
0
SPLINE
5
164
100
AcDbEntity
8
0
100
AcDbSpline
70
1064
71
3
72
8
73
4
74
0
42
0.000000001
43
0.0000000001
44
0.0000000001
40
0
40
0
40
0
40
0
40
0.93868267208364997
40
0.93868267208364997
40
0.93868267208364997
40
0.93868267208364997
10
350.09395526816633
20
-25.230506940290542
30
0
10
354.08358931407099
20
-27.118226593406689
30
0
10
362.50613015007002
20
-29.354150631465949
30
0
10
368.8659136232535
20
-26.665197418932912
30
0
0
SPLINE
5
165
100
AcDbEntity
8
0
100
AcDbSpline
70
1064
71
3
72
8
73
4
74
0
42
0.000000001
43
0.0000000001
44
0.0000000001
40
0
40
0
40
0
40
0
40
0.89283103705378575
40
0.89283103705378575
40
0.89283103705378575
40
0.89283103705378575
10
336.86682218201929
20
-31.655107695218938
30
0
10
342.91102367583875
20
-33.113206121979886
30
0
10
350.15391125750165
20
-34.183385875007041
30
0
10
355.78534017442257
20
-30.776446460393316
30
0
0
SPLINE
5
166
100
AcDbEntity
8
0
100
AcDbSpline
70
1064
71
3
72
8
73
4
74
0
42
0.000000001
43
0.0000000001
44
0.0000000001
40
0
40
0
40
0
40
0
40
0.93487898941486747
40
0.93487898941486747
40
0.93487898941486747
40
0.93487898941486747
10
325.27734853195562
20
-38.58360148240061
30
0
10
329.60413627373526
20
-40.110369176516471
30
0
10
337.00674763110317
20
-40.661311165537683
30
0
10
343.43561543940677
20
-36.159442465518964
30
0
0
SPLINE
5
167
100
AcDbEntity
8
0
100
AcDbSpline
70
1064
71
3
72
8
73
4
74
0
42
0.000000001
43
0.0000000001
44
0.0000000001
40
0
40
0
40
0
40
0
40
0.9339280325749364
40
0.9339280325749364
40
0.9339280325749364
40
0.9339280325749364
10
314.94760274168493
20
-45.575080718403889
30
0
10
318.74056558000586
20
-46.570880501109251
30
0
10
328.07531596838282
20
-47.47184329273901
30
0
10
333.88642443078902
20
-42.930711032943769
30
0
0
SPLINE
5
168
100
AcDbEntity
8
0
100
AcDbSpline
70
1064
71
3
72
8
73
4
74
0
42
0.000000001
43
0.0000000001
44
0.0000000001
40
0
40
0
40
0
40
0
40
0.985279086325064
40
0.985279086325064
40
0.985279086325064
40
0.985279086325064
10
305.58472277379934
20
-53.574317693873041
30
0
10
309.77240313099037
20
-53.693978196262307
30
0
10
316.3981902487518
20
-54.808708744570666
30
0
10
322.52892868446708
20
-50.21810308900924
30
0
0
SPLINE
5
169
100
AcDbEntity
8
0
100
AcDbSpline
70
1064
71
3
72
8
73
4
74
0
42
0.000000001
43
0.0000000001
44
0.0000000001
40
0.28863640458484668
40
0.28863640458484668
40
0.28863640458484668
40
0.28863640458484668
40
1
40
1
40
1
40
1
10
311.49330041582181
20
-66.756876769275479
30
0
10
305.66904392386158
20
-67.746802782785124
30
0
10
301.40551382479441
20
-63.568949321045324
30
0
10
297.97938325589121
20
-61.6039191129654
30
0
0
SPLINE
5
170
100
AcDbEntity
8
0
100
AcDbSpline
70
1064
71
3
72
8
73
4
74
0
42
0.000000001
43
0.0000000001
44
0.0000000001
40
0.30814617991252441
40
0.30814617991252441
40
0.30814617991252441
40
0.30814617991252441
40
1
40
1
40
1
40
1
10
312.24035377062455
20
-69.090635377940231
30
0
10
310.70104391289169
20
-72.133047601492081
30
0
10
312.37008213991095
20
-75.619743091441265
30
0
10
310.04074264222476
20
-78.369387957476647
30
0
0
SPLINE
5
171
100
AcDbEntity
8
0
100
AcDbSpline
70
1064
71
3
72
8
73
4
74
0
42
0.000000001
43
0.0000000001
44
0.0000000001
40
0
40
0
40
0
40
0
40
0.85557810926873135
40
0.85557810926873135
40
0.85557810926873135
40
0.85557810926873135
10
310.04074264222476
20
-78.369387957476647
30
0
10
314.2458434216291
20
-75.823818686147689
30
0
10
317.58509267307056
20
-78.639267728087304
30
0
10
322.19825726595985
20
-74.779701666400541
30
0
0
SPLINE
5
172
100
AcDbEntity
8
0
100
AcDbSpline
70
1064
71
3
72
8
73
4
74
0
42
0.000000001
43
0.0000000001
44
0.0000000001
40
0.23178296571126414
40
0.23178296571126414
40
0.23178296571126414
40
0.23178296571126414
40
1
40
1
40
1
40
1
10
321.44024650613511
20
-76.794771453182349
30
0
10
318.10663835075957
20
-80.676341127189289
30
0
10
321.19335020772144
20
-84.638209177576272
30
0
10
318.60689586548972
20
-87.691338241560501
30
0
0
SPLINE
5
173
100
AcDbEntity
8
0
100
AcDbSpline
70
1064
71
3
72
8
73
4
74
0
42
0.000000001
43
0.0000000001
44
0.0000000001
40
0
40
0
40
0
40
0
40
0.88902056745903424
40
0.88902056745903424
40
0.88902056745903424
40
0.88902056745903424
10
318.60687698212922
20
-87.691357124920984
30
0
10
323.98427813616541
20
-84.71030721880814
30
0
10
326.73423209883543
20
-88.513207519122858
30
0
10
331.55873954510213
20
-83.118352078289206
30
0
0
SPLINE
5
174
100
AcDbEntity
8
0
100
AcDbSpline
70
1064
71
3
72
8
73
4
74
0
42
0.000000001
43
0.0000000001
44
0.0000000001
40
0.081662800348594369
40
0.081662800348594369
40
0.081662800348594369
40
0.081662800348594369
40
1
40
1
40
1
40
1
10
332.42043507145752
20
-83.487029601023735
30
0
10
324.970523447272
20
-88.096501246422122
30
0
10
330.51687240581379
20
-93.363565953470754
30
0
10
327.42497200068078
20
-97.013335734045526
30
0
0
SPLINE
5
175
100
AcDbEntity
8
0
100
AcDbSpline
70
1064
71
3
72
8
73
4
74
0
42
0.000000001
43
0.0000000001
44
0.0000000001
40
0
40
0
40
0
40
0
40
0.84781468040818952
40
0.84781468040818952
40
0.84781468040818952
40
0.84781468040818952
10
327.42497200068078
20
-97.013335734045526
30
0
10
332.55313191925984
20
-94.170464770747046
30
0
10
334.02409737588897
20
-98.040515043591313
30
0
10
339.67749912914138
20
-93.380832195699114
30
0
0
SPLINE
5
176
100
AcDbEntity
8
0
100
AcDbSpline
70
1064
71
3
72
8
73
4
74
0
42
0.000000001
43
0.0000000001
44
0.0000000001
40
0.096224824111865323
40
0.096224824111865323
40
0.096224824111865323
40
0.096224824111865323
40
1
40
1
40
1
40
1
10
342.39460381858464
20
-92.524876585634729
30
0
10
335.46309800466878
20
-97.081213134555227
30
0
10
340.78669621510954
20
-102.23953335880195
30
0
10
337.74384097532516
20
-105.83141186923655
30
0
0
SPLINE
5
177
100
AcDbEntity
8
0
100
AcDbSpline
70
1064
71
3
72
8
73
4
74
0
42
0.000000001
43
0.0000000001
44
0.0000000001
40
0
40
0
40
0
40
0
40
0.94411729250406551
40
0.94411729250406551
40
0.94411729250406551
40
0.94411729250406551
10
337.74384097532516
20
-105.83141186923655
30
0
10
343.45450460234053
20
-102.66562139776758
30
0
10
344.62995100642581
20
-107.82439674391583
30
0
10
352.09624612544792
20
-100.25853467126277
30
0
0
SPLINE
5
178
100
AcDbEntity
8
0
100
AcDbSpline
70
1064
71
3
72
8
73
4
74
0
42
0.000000001
43
0.0000000001
44
0.0000000001
40
0.12875962861792986
40
0.12875962861792986
40
0.12875962861792986
40
0.12875962861792986
40
1
40
1
40
1
40
1
10
351.88069779171116
20
-101.1990905412862
30
0
10
344.20842559503234
20
-108.40224439355383
30
0
10
350.72366302370034
20
-118.32434577772803
30
0
10
352.61945366310039
20
-122.77469587754
30
0
0
SPLINE
5
179
100
AcDbEntity
8
0
100
AcDbSpline
70
1064
71
3
72
8
73
4
74
0
42
0.000000001
43
0.0000000001
44
0.0000000001
40
0
40
0
40
0
40
0
40
0.98645896632106922
40
0.98645896632106922
40
0.98645896632106922
40
0.98645896632106922
10
352.61947254646083
20
-122.77471476090049
30
0
10
352.99424244287366
20
-118.59707077072231
30
0
10
350.25663840800866
20
-115.53946390620561
30
0
10
358.20671311348087
20
-107.73034393999811
30
0
0
SPLINE
5
180
100
AcDbEntity
8
0
100
AcDbSpline
70
1064
71
3
72
8
73
4
74
0
42
0.000000001
43
0.0000000001
44
0.0000000001
40
0
40
0
40
0
40
0
40
1.1149833007533108e-06
40
1.1149833007533108e-06
40
1.1149833007533108e-06
40
1.1149833007533108e-06
10
408.40350637214965
20
-55.312927574987228
30
0
10
408.40350727200354
20
-55.312926153715374
30
0
10
408.40350817185788
20
-55.312924732444756
30
0
10
408.40350907171262
20
-55.312923311175368
30
0
0
SPLINE
5
181
100
AcDbEntity
8
0
100
AcDbSpline
70
1064
71
3
72
8
73
4
74
0
42
0.000000001
43
0.0000000001
44
0.0000000001
40
0
40
0
40
0
40
0
40
0.077181392419427786
40
0.077181392419427786
40
0.077181392419427786
40
0.077181392419427786
10
429.75205177595615
20
-53.79309086650774
30
0
10
429.74037473419526
20
-53.709216418642391
30
0
10
429.70105646141872
20
-53.633299790825205
30
0
10
429.63876047393728
20
-53.565028020585274
30
0
0
SPLINE
5
182
100
AcDbEntity
8
0
100
AcDbSpline
70
1064
71
3
72
8
73
4
74
0
42
0.000000001
43
0.0000000001
44
0.0000000001
40
0.15553457784726049
40
0.15553457784726049
40
0.15553457784726049
40
0.15553457784726049
40
1
40
1
40
1
40
1
10
433.57190933476215
20
-38.911185749001916
30
0
10
436.79943383745444
20
-38.80055038814735
30
0
10
439.88592721338142
20
-38.547202079381869
30
0
10
440.27658077231848
20
-39.115880633501035
30
0
0
SPLINE
5
183
100
AcDbEntity
8
0
100
AcDbSpline
70
1064
71
3
72
8
73
4
74
0
42
0.000000001
43
0.0000000001
44
0.0000000001
40
0
40
0
40
0
40
0
40
0.74388954058193923
40
0.74388954058193923
40
0.74388954058193923
40
0.74388954058193923
10
440.27658077231848
20
-39.115880633501035
30
0
10
441.39196538022708
20
-40.739574844595609
30
0
10
438.97932159451364
20
-44.101185585517356
30
0
10
436.7902004232584
20
-46.653488690591203
30
0
0
SPLINE
5
184
100
AcDbEntity
8
0
100
AcDbSpline
70
1064
71
3
72
8
73
4
74
0
42
0.000000001
43
0.0000000001
44
0.0000000001
40
0
40
0
40
0
40
0
40
0.86272423731939352
40
0.86272423731939352
40
0.86272423731939352
40
0.86272423731939352
10
409.09174821091506
20
-38.144695535177952
30
0
10
409.35906940825527
20
-38.194717458295329
30
0
10
410.92097409594066
20
-37.24572036300551
30
0
10
410.54973519010508
20
-34.799236028320223
30
0
0
SPLINE
5
185
100
AcDbEntity
8
0
100
AcDbSpline
70
1064
71
3
72
8
73
4
74
0
42
0.000000001
43
0.0000000001
44
0.0000000001
40
0.13382635014448138
40
0.13382635014448138
40
0.13382635014448138
40
0.13382635014448138
40
0.19903607740683255
40
0.19903607740683255
40
0.19903607740683255
40
0.19903607740683255
10
391.58624414562803
20
-40.353444880401533
30
0
10
391.46309575895265
20
-40.399319147838895
30
0
10
391.34116864218271
20
-40.445258012503629
30
0
10
391.22059211904775
20
-40.492446429642506
30
0
0
SPLINE
5
186
100
AcDbEntity
8
0
100
AcDbSpline
70
1064
71
3
72
8
73
4
74
0
42
0.000000001
43
0.0000000001
44
0.0000000001
40
0
40
0
40
0
40
0
40
0.74200331870089986
40
0.74200331870089986
40
0.74200331870089986
40
0.74200331870089986
10
431.39412991838765
20
-52.957511607736116
30
0
10
434.02774850191838
20
-51.67415481073391
30
0
10
436.18763599855629
20
-49.339681822996589
30
0
10
436.7902025040209
20
-46.65347928398576
30
0
0
SPLINE
5
187
100
AcDbEntity
8
0
100
AcDbSpline
70
1064
71
3
72
8
73
4
74
0
42
0.000000001
43
0.0000000001
44
0.0000000001
40
0.25287619768024217
40
0.25287619768024217
40
0.25287619768024217
40
0.25287619768024217
40
1
40
1
40
1
40
1
10
433.57190887171737
20
-38.911186338440714
30
0
10
428.82606372054568
20
-35.183245356207927
30
0
10
420.55643193827876
20
-34.321132899989664
30
0
10
418.3419511669228
20
-34.471759183439239
30
0
0
SPLINE
5
188
100
AcDbEntity
8
0
100
AcDbSpline
70
1064
71
3
72
8
73
4
74
0
42
0.000000001
43
0.0000000001
44
0.0000000001
40
0.75594753449654994
40
0.75594753449654994
40
0.75594753449654994
40
0.75594753449654994
40
1
40
1
40
1
40
1
10
311.49330054740739
20
-66.756876828027544
30
0
10
311.02475246637658
20
-67.806549251904499
30
0
10
310.40685757076545
20
-68.763139638862128
30
0
10
309.36213131729511
20
-69.487363322080412
30
0
0
SPLINE
5
189
100
AcDbEntity
8
0
100
AcDbSpline
70
1064
71
3
72
8
73
4
74
0
42
0.000000001
43
0.0000000001
44
0.0000000001
40
0
40
0
40
0
40
0
40
0.17073573413617468
40
0.17073573413617468
40
0.17073573413617468
40
0.17073573413617468
10
309.36213131729511
20
-69.487363322080412
30
0
10
310.30416747361801
20
-69.213877222280871
30
0
10
311.26527772349931
20
-69.111355573713098
30
0
10
312.24035377061369
20
-69.090635377428669
30
0
0
SPLINE
5
190
100
AcDbEntity
8
0
100
AcDbSpline
70
1064
71
3
72
8
73
4
74
0
42
0.000000001
43
0.0000000001
44
0.0000000001
40
0.81427693449335992
40
0.81427693449335992
40
0.81427693449335992
40
0.81427693449335992
40
1
40
1
40
1
40
1
10
322.19825726596082
20
-74.779701666413686
30
0
10
322.00980915412958
20
-75.53043360787818
30
0
10
321.67264115467196
20
-76.278216605173782
30
0
10
321.04734360490204
20
-77.016338530279455
30
0
0
SPLINE
5
191
100
AcDbEntity
8
0
100
AcDbSpline
70
1064
71
3
72
8
73
4
74
0
42
0.000000001
43
0.0000000001
44
0.0000000001
40
0
40
0
40
0
40
0
40
0.026662295131615135
40
0.026662295131615135
40
0.026662295131615135
40
0.026662295131615135
10
321.04734360490204
20
-77.016338530279455
30
0
10
321.178386740326
20
-76.937011209424838
30
0
10
321.30935020570359
20
-76.863293089390268
30
0
10
321.4402438417261
20
-76.79477455762526
30
0
0
LINE
5
192
100
AcDbEntity
8
0
100
AcDbLine
10
331.55873954510213
20
-83.11835207828922
30
0
11
332.42043507145752
21
-83.487029601023735
31
0
0
SPLINE
5
193
100
AcDbEntity
8
0
100
AcDbSpline
70
1064
71
3
72
8
73
4
74
0
42
0.000000001
43
0.0000000001
44
0.0000000001
40
0
40
0
40
0
40
0
40
0.15840048794262587
40
0.15840048794262587
40
0.15840048794262587
40
0.15840048794262587
10
339.56532992550791
20
-93.518743280191941
30
0
10
340.52344382955079
20
-92.987598729206354
30
0
10
341.46768306202085
20
-92.690781385698472
30
0
10
342.39460381838029
20
-92.524876584493001
30
0
0
SPLINE
5
194
100
AcDbEntity
8
0
100
AcDbSpline
70
1064
71
3
72
8
73
4
74
0
42
0.000000001
43
0.0000000001
44
0.0000000001
40
0.90487806899453538
40
0.90487806899453538
40
0.90487806899453538
40
0.90487806899453538
40
1
40
1
40
1
40
1
10
352.09624611631085
20
-100.25853466789742
30
0
10
351.94142811310826
20
-100.67700561316981
30
0
10
351.71612770142275
20
-101.07696064988488
30
0
10
351.39586855523191
20
-101.45500424851971
30
0
0
SPLINE
5
195
100
AcDbEntity
8
0
100
AcDbSpline
70
1064
71
3
72
8
73
4
74
0
42
0.000000001
43
0.0000000001
44
0.0000000001
40
0.63998254064981652
40
0.63998254064981652
40
0.63998254064981652
40
0.63998254064981652
40
1
40
1
40
1
40
1
10
358.20671311348644
20
-107.73034394002401
30
0
10
359.17796961389183
20
-110.73466194079984
30
0
10
360.70116311346516
20
-113.41001740408709
30
0
10
361.48454936584233
20
-115.24901581574161
30
0
0
SPLINE
5
196
100
AcDbEntity
8
0
100
AcDbSpline
70
1064
71
3
72
8
73
4
74
0
42
0.000000001
43
0.0000000001
44
0.0000000001
40
0
40
0
40
0
40
0
40
0.027364123858352948
40
0.027364123858352948
40
0.027364123858352948
40
0.027364123858352948
10
351.39586855523191
20
-101.45500424851971
30
0
10
351.5613853909511
20
-101.36324755339433
30
0
10
351.72290371150501
20
-101.2781067016205
30
0
10
351.88069743670553
20
-101.19908983235332
30
0
0
SPLINE
5
197
100
AcDbEntity
8
0
100
AcDbSpline
70
1064
71
3
72
8
73
4
74
0
42
0.000000001
43
0.0000000001
44
0.0000000001
40
0.68465503225969215
40
0.68465503225969215
40
0.68465503225969215
40
0.68465503225969215
40
1
40
1
40
1
40
1
10
366.92620620822964
20
-99.085492018221686
30
0
10
367.85564471519814
20
-101.90363624757995
30
0
10
369.06956413140801
20
-104.34656214067536
30
0
10
369.75574449868787
20
-105.95736388351936
30
0
0
SPLINE
5
198
100
AcDbEntity
8
0
100
AcDbSpline
70
1064
71
3
72
8
73
4
74
0
42
0.000000001
43
0.0000000001
44
0.0000000001
40
0.63703802402869492
40
0.63703802402869492
40
0.63703802402869492
40
0.63703802402869492
40
1
40
1
40
1
40
1
10
375.61005680074487
20
-89.145368175708455
30
0
10
376.2905156774757
20
-92.029046864962041
30
0
10
377.56822816598486
20
-94.609960653223737
30
0
10
378.35802159051701
20
-96.463999894839972
30
0
0
SPLINE
5
199
100
AcDbEntity
8
0
100
AcDbSpline
70
1064
71
3
72
8
73
4
74
0
42
0.000000001
43
0.0000000001
44
0.0000000001
40
0.53960524069596982
40
0.53960524069596982
40
0.53960524069596982
40
0.53960524069596982
40
1
40
1
40
1
40
1
10
383.53840767349772
20
-81.287662972740037
30
0
10
383.90046431914442
20
-83.488385013297147
30
0
10
384.78772604289674
20
-85.138652570022515
30
0
10
385.91453817995017
20
-87.086541972677509
30
0
0
SPLINE
5
200
100
AcDbEntity
8
0
100
AcDbSpline
70
1064
71
3
72
8
73
4
74
0
42
0.000000001
43
0.0000000001
44
0.0000000001
40
0.53500669118053212
40
0.53500669118053212
40
0.53500669118053212
40
0.53500669118053212
40
1
40
1
40
1
40
1
10
314.01592959290588
20
-57.533175493617449
30
0
10
310.69397242183749
20
-56.73465411701055
30
0
10
307.82425917520817
20
-54.858784288961516
30
0
10
305.58472277379934
20
-53.574317693873041
30
0
0
SPLINE
5
201
100
AcDbEntity
8
0
100
AcDbSpline
70
1064
71
3
72
8
73
4
74
0
42
0.000000001
43
0.0000000001
44
0.0000000001
40
0.61988685114600128
40
0.61988685114600128
40
0.61988685114600128
40
0.61988685114600128
40
1
40
1
40
1
40
1
10
322.52892868443871
20
-50.218103089007677
30
0
10
319.21808276709567
20
-49.13045021944459
30
0
10
316.562869204376
20
-47.127864313652736
30
0
10
314.94760274168493
20
-45.575080718403889
30
0
0
SPLINE
5
202
100
AcDbEntity
8
0
100
AcDbSpline
70
1064
71
3
72
8
73
4
74
0
42
0.000000001
43
0.0000000001
44
0.0000000001
40
0.53810629686310196
40
0.53810629686310196
40
0.53810629686310196
40
0.53810629686310196
40
1
40
1
40
1
40
1
10
333.88642402310103
20
-42.930711351398294
30
0
10
330.31290956057012
20
-42.219923662820335
30
0
10
327.26922443949201
20
-40.324995970174285
30
0
10
325.27734853195562
20
-38.58360148240061
30
0
0
SPLINE
5
203
100
AcDbEntity
8
0
100
AcDbSpline
70
1064
71
3
72
8
73
4
74
0
42
0.000000001
43
0.0000000001
44
0.0000000001
40
0.50144269644368877
40
0.50144269644368877
40
0.50144269644368877
40
0.50144269644368877
40
1
40
1
40
1
40
1
10
343.43561543939046
20
-36.159442465514822
30
0
10
340.8903154316198
20
-35.06057690874578
30
0
10
339.20520835547478
20
-33.471934043688634
30
0
10
336.86682218201929
20
-31.655107695218938
30
0
0
SPLINE
5
204
100
AcDbEntity
8
0
100
AcDbSpline
70
1064
71
3
72
8
73
4
74
0
42
0.000000001
43
0.0000000001
44
0.0000000001
40
0
40
0
40
0
40
0
40
0.74607598685618171
40
0.74607598685618171
40
0.74607598685618171
40
0.74607598685618171
10
362.98137669959857
20
-19.060529417834321
30
0
10
364.30899912716654
20
-22.264004074372927
30
0
10
366.4050201251809
20
-25.018273960914271
30
0
10
368.86591238364747
20
-26.665196754912174
30
0
0
SPLINE
5
205
100
AcDbEntity
8
0
100
AcDbSpline
70
1064
71
3
72
8
73
4
74
0
42
0.000000001
43
0.0000000001
44
0.0000000001
40
0.53827092565972989
40
0.53827092565972989
40
0.53827092565972989
40
0.53827092565972989
40
1
40
1
40
1
40
1
10
355.78533937649024
20
-30.776446943083201
30
0
10
353.25670981464668
20
-28.999916261784271
30
0
10
351.61978838282488
20
-26.796791839427236
30
0
10
350.09395526816633
20
-25.230506940290542
30
0
0
SPLINE
5
206
100
AcDbEntity
8
0
100
AcDbSpline
70
1064
71
3
72
8
73
4
74
0
42
0.000000001
43
0.0000000001
44
0.0000000001
40
0.45102317366366812
40
0.45102317366366812
40
0.45102317366366812
40
0.45102317366366812
40
1
40
1
40
1
40
1
10
401.49014698171209
20
-34.780750516888823
30
0
10
404.59043557439031
20
-34.712127180364057
30
0
10
407.71940759645304
20
-34.694007019107886
30
0
10
410.98134944228491
20
-34.814388317345426
30
0
0
SPLINE
5
207
100
AcDbEntity
8
0
100
AcDbSpline
70
1064
71
3
72
8
73
4
74
0
42
0.000000001
43
0.0000000001
44
0.0000000001
40
0.98309547738451608
40
0.98309547738451608
40
0.98309547738451608
40
0.98309547738451608
40
1
40
1
40
1
40
1
10
400.30026372955041
20
-26.196470483789255
30
0
10
400.35167606870925
20
-26.190477889584209
30
0
10
400.40301184305667
20
-26.184444683092501
30
0
10
400.45427253518432
20
-26.178376102050571
30
0
0
ENDSEC
0
SECTION
2
OBJECTS
0
DICTIONARY
5
C
100
AcDbDictionary
3
ACAD_GROUP
350
D
3
ACAD_MLINESTYLE
350
17
0
DICTIONARY
5
D
100
AcDbDictionary
0
DICTIONARY
5
1A
330
C
100
AcDbDictionary
0
DICTIONARY
5
17
100
AcDbDictionary
0
ENDSEC
0
EOF
