0
SECTION
2
HEADER
9
$INSUNITS
70
4
9
$ACADVER
1
AC1014
9
$HANDSEED
5
FFFF
0
ENDSEC
0
SECTION
2
TABLES
0
TABLE
2
VPORT
5
8
100
AcDbSymbolTable
0
ENDTAB
0
TABLE
2
LTYPE
5
5
100
AcDbSymbolTable
0
LTYPE
5
14
100
AcDbSymbolTableRecord
100
AcDbLinetypeTableRecord
2
BYBLOCK
70
0
0
LTYPE
5
15
100
AcDbSymbolTableRecord
100
AcDbLinetypeTableRecord
2
BYLAYER
70
0
0
ENDTAB
0
TABLE
2
LAYER
5
2
100
AcDbSymbolTable
70
2
0
LAYER
5
50
100
AcDbSymbolTableRecord
100
AcDbLayerTableRecord
2
0
70
0
6
CONTINUOUS
0
ENDTAB
0
TABLE
2
STYLE
5
3
100
AcDbSymbolTable
70
1
0
STYLE
5
11
100
AcDbSymbolTableRecord
100
AcDbTextStyleTableRecord
2
STANDARD
70
0
0
ENDTAB
0
TABLE
2
VIEW
5
6
100
AcDbSymbolTable
70
0
0
ENDTAB
0
TABLE
2
UCS
5
7
100
AcDbSymbolTable
70
0
0
ENDTAB
0
TABLE
2
APPID
5
9
100
AcDbSymbolTable
70
2
0
APPID
5
12
100
AcDbSymbolTableRecord
100
AcDbRegAppTableRecord
2
ACAD
70
0
0
ENDTAB
0
TABLE
2
DIMSTYLE
5
A
100
AcDbSymbolTable
70
1
0
ENDTAB
0
TABLE
2
BLOCK_RECORD
5
1
100
AcDbSymbolTable
70
1
0
BLOCK_RECORD
5
1F
100
AcDbSymbolTableRecord
100
AcDbBlockTableRecord
2
*MODEL_SPACE
0
BLOCK_RECORD
5
1B
100
AcDbSymbolTableRecord
100
AcDbBlockTableRecord
2
*PAPER_SPACE
0
ENDTAB
0
ENDSEC
0
SECTION
2
BLOCKS
0
BLOCK
5
20
100
AcDbEntity
100
AcDbBlockBegin
2
*MODEL_SPACE
0
ENDBLK
5
21
100
AcDbEntity
100
AcDbBlockEnd
0
BLOCK
5
1C
100
AcDbEntity
100
AcDbBlockBegin
2
*PAPER_SPACE
0
ENDBLK
5
1D
100
AcDbEntity
100
AcDbBlockEnd
0
ENDSEC
0
SECTION
2
ENTITIES
0
LWPOLYLINE
5
100
100
AcDbEntity
8
0
100
AcDbPolyline
90
4
70
1
43
0.0
10
172.7729166666667
20
140
10
0
20
140
10
0
20
7.7083333333333215
10
172.7729166666667
20
7.7083333333333215
0
SPLINE
5
101
100
AcDbEntity
8
0
100
AcDbSpline
70
1064
71
3
72
8
73
4
74
0
42
0.000000001
43
0.0000000001
44
0.0000000001
40
0
40
0
40
0
40
0
40
1
40
1
40
1
40
1
10
72.125418281555184
20
134.81416656573612
30
0
10
73.818750000000009
20
135.07874989906946
30
0
10
75.538541666666674
20
134.94645823240279
30
0
10
77.258333333333354
20
134.97291666666666
30
0
0
SPLINE
5
102
100
AcDbEntity
8
0
100
AcDbSpline
70
1064
71
3
72
8
73
4
74
0
42
0.000000001
43
0.0000000001
44
0.0000000001
40
0
40
0
40
0
40
0
40
1
40
1
40
1
40
1
10
77.258333333333354
20
134.97291666666666
30
0
10
84.851878229777043
20
135.23750000000001
30
0
10
92.418955103556328
20
135.07874989906946
30
0
10
100.0125
20
135.13166676759721
30
0
0
SPLINE
5
103
100
AcDbEntity
8
0
100
AcDbSpline
70
1064
71
3
72
8
73
4
74
0
42
0.000000001
43
0.0000000001
44
0.0000000001
40
0
40
0
40
0
40
0
40
1
40
1
40
1
40
1
10
100.0125
20
135.13166676759721
30
0
10
102.0497948964437
20
135.18458313147227
30
0
10
104.06062177022299
20
134.99937510093054
30
0
10
106.09791666666668
20
134.94645823240279
30
0
0
SPLINE
5
104
100
AcDbEntity
8
0
100
AcDbSpline
70
1064
71
3
72
8
73
4
74
0
42
0.000000001
43
0.0000000001
44
0.0000000001
40
0
40
0
40
0
40
0
40
1
40
1
40
1
40
1
10
106.09791666666668
20
134.94645823240279
30
0
10
113.9560448964437
20
134.07333343426387
30
0
10
121.65541343688966
20
131.87729146480561
30
0
10
128.87854328155521
20
128.67583353519439
30
0
0
SPLINE
5
105
100
AcDbEntity
8
0
100
AcDbSpline
70
1064
71
3
72
8
73
4
74
0
42
0.000000001
43
0.0000000001
44
0.0000000001
40
0
40
0
40
0
40
0
40
1
40
1
40
1
40
1
10
128.87854328155521
20
128.67583353519439
30
0
10
134.27604166666669
20
126.29458353519439
30
0
10
139.27667312622071
20
123.01375080744424
30
0
10
143.51000645955406
20
118.93916707038881
30
0
0
SPLINE
5
106
100
AcDbEntity
8
0
100
AcDbSpline
70
1064
71
3
72
8
73
4
74
0
42
0.000000001
43
0.0000000001
44
0.0000000001
40
0
40
0
40
0
40
0
40
1
40
1
40
1
40
1
10
143.51000645955406
20
118.93916707038881
30
0
10
147.02896156311039
20
115.57895752588907
30
0
10
149.99229812622073
20
111.68958333333333
30
0
10
152.42645187377931
20
107.45625000000001
30
0
0
SPLINE
5
107
100
AcDbEntity
8
0
100
AcDbSpline
70
1064
71
3
72
8
73
4
74
0
42
0.000000001
43
0.0000000001
44
0.0000000001
40
0
40
0
40
0
40
0
40
1
40
1
40
1
40
1
10
152.42645187377931
20
107.45625000000001
30
0
10
154.09333979288738
20
104.46645752588907
30
0
10
155.99832687377932
20
101.55604085922241
30
0
10
157.40063145955406
20
98.407500807444251
30
0
0
SPLINE
5
108
100
AcDbEntity
8
0
100
AcDbSpline
70
1064
71
3
72
8
73
4
74
0
42
0.000000001
43
0.0000000001
44
0.0000000001
40
0
40
0
40
0
40
0
40
1
40
1
40
1
40
1
10
157.40063145955406
20
98.407500807444251
30
0
10
159.94062500000001
20
92.851250807444245
30
0
10
161.47520510355633
20
86.845209948221822
30
0
10
161.76625645955403
20
80.759793281555147
30
0
0
SPLINE
5
109
100
AcDbEntity
8
0
100
AcDbSpline
70
1064
71
3
72
8
73
4
74
0
42
0.000000001
43
0.0000000001
44
0.0000000001
40
0
40
0
40
0
40
0
40
1
40
1
40
1
40
1
10
161.76625645955403
20
80.759793281555147
30
0
10
162.08374354044597
20
77.743540859222406
30
0
10
161.87208010355633
20
74.674376614888502
30
0
10
161.92500000000001
20
71.658128229777006
30
0
0
SPLINE
5
110
100
AcDbEntity
8
0
100
AcDbSpline
70
1064
71
3
72
8
73
4
74
0
42
0.000000001
43
0.0000000001
44
0.0000000001
40
0
40
0
40
0
40
0
40
1
40
1
40
1
40
1
10
161.92500000000001
20
71.658128229777006
30
0
10
161.79270833333337
20
71.658128229777006
30
0
10
161.52812500000005
20
71.658128229777006
30
0
10
161.39583333333334
20
71.658128229777006
30
0
0
SPLINE
5
111
100
AcDbEntity
8
0
100
AcDbSpline
70
1064
71
3
72
8
73
4
74
0
42
0.000000001
43
0.0000000001
44
0.0000000001
40
0
40
0
40
0
40
0
40
1
40
1
40
1
40
1
10
161.39583333333334
20
71.658128229777006
30
0
10
161.5810448964437
20
75.46812661488849
30
0
10
160.94603843688969
20
79.225209140777579
30
0
10
160.12583656311037
20
82.902915859222404
30
0
0
SPLINE
5
112
100
AcDbEntity
8
0
100
AcDbSpline
70
1064
71
3
72
8
73
4
74
0
42
0.000000001
43
0.0000000001
44
0.0000000001
40
0
40
0
40
0
40
0
40
1
40
1
40
1
40
1
10
160.12583656311037
20
82.902915859222404
30
0
10
158.98813145955407
20
87.744791666666657
30
0
10
157.05666020711266
20
92.374999999999986
30
0
10
154.56958656311036
20
96.661249192555729
30
0
0
SPLINE
5
113
100
AcDbEntity
8
0
100
AcDbSpline
70
1064
71
3
72
8
73
4
74
0
42
0.000000001
43
0.0000000001
44
0.0000000001
40
0
40
0
40
0
40
0
40
1
40
1
40
1
40
1
10
154.56958656311036
20
96.661249192555729
30
0
10
151.50041020711265
20
101.71479247411092
30
0
10
147.18770510355634
20
106.02750161488851
30
0
10
142.08125000000001
20
109.0702079296112
30
0
0
SPLINE
5
114
100
AcDbEntity
8
0
100
AcDbSpline
70
1064
71
3
72
8
73
4
74
0
42
0.000000001
43
0.0000000001
44
0.0000000001
40
0
40
0
40
0
40
0
40
1
40
1
40
1
40
1
10
142.08125000000001
20
109.0702079296112
30
0
10
139.01208979288739
20
110.92229126294454
30
0
10
135.65187822977703
20
112.21874999999999
30
0
10
132.18583494822187
20
113.19770752588907
30
0
0
SPLINE
5
115
100
AcDbEntity
8
0
100
AcDbSpline
70
1064
71
3
72
8
73
4
74
0
42
0.000000001
43
0.0000000001
44
0.0000000001
40
0
40
0
40
0
40
0
40
1
40
1
40
1
40
1
10
132.18583494822187
20
113.19770752588907
30
0
10
126.07395833333335
20
114.75874959627787
30
0
10
119.48583494822186
20
114.203125
30
0
10
113.66500161488852
20
111.82187499999999
30
0
0
SPLINE
5
116
100
AcDbEntity
8
0
100
AcDbSpline
70
1064
71
3
72
8
73
4
74
0
42
0.000000001
43
0.0000000001
44
0.0000000001
40
0
40
0
40
0
40
0
40
1
40
1
40
1
40
1
10
113.66500161488852
20
111.82187499999999
30
0
10
104.8279198964437
20
108.27645792961121
30
0
10
97.922293281555199
20
100.28604005177814
30
0
10
95.832086563110366
20
91.025623385111487
30
0
0
SPLINE
5
117
100
AcDbEntity
8
0
100
AcDbSpline
70
1064
71
3
72
8
73
4
74
0
42
0.000000001
43
0.0000000001
44
0.0000000001
40
0
40
0
40
0
40
0
40
1
40
1
40
1
40
1
10
95.832086563110366
20
91.025623385111487
30
0
10
94.218126614888519
20
84.807915051778167
30
0
10
92.709998385111504
20
78.563750807444251
30
0
10
91.545833333333348
20
72.266666666666652
30
0
0
SPLINE
5
118
100
AcDbEntity
8
0
100
AcDbSpline
70
1064
71
3
72
8
73
4
74
0
42
0.000000001
43
0.0000000001
44
0.0000000001
40
0
40
0
40
0
40
0
40
1
40
1
40
1
40
1
10
91.545833333333348
20
72.266666666666652
30
0
10
91.492913436889665
20
71.896251614888499
30
0
10
91.228330103556331
20
71.631668281555164
30
0
10
90.990206718444838
20
71.340624999999989
30
0
0
SPLINE
5
119
100
AcDbEntity
8
0
100
AcDbSpline
70
1064
71
3
72
8
73
4
74
0
42
0.000000001
43
0.0000000001
44
0.0000000001
40
0
40
0
40
0
40
0
40
1
40
1
40
1
40
1
10
90.990206718444838
20
71.340624999999989
30
0
10
91.01666666666668
20
72.240206718444824
30
0
10
91.254790051778173
20
73.113332525889064
30
0
10
91.413541666666674
20
73.959998385111476
30
0
0
SPLINE
5
120
100
AcDbEntity
8
0
100
AcDbSpline
70
1064
71
3
72
8
73
4
74
0
42
0.000000001
43
0.0000000001
44
0.0000000001
40
0
40
0
40
0
40
0
40
1
40
1
40
1
40
1
10
91.413541666666674
20
73.959998385111476
30
0
10
92.57770671844483
20
79.648540051778141
30
0
10
93.900623385111501
20
85.310625807444254
30
0
10
95.355831718444847
20
90.91979166666664
30
0
0
SPLINE
5
121
100
AcDbEntity
8
0
100
AcDbSpline
70
1064
71
3
72
8
73
4
74
0
42
0.000000001
43
0.0000000001
44
0.0000000001
40
0
40
0
40
0
40
0
40
1
40
1
40
1
40
1
10
95.355831718444847
20
90.91979166666664
30
0
10
96.387705103556328
20
94.729790051778167
30
0
10
97.975205103556334
20
98.407500807444251
30
0
10
100.30354328155519
20
101.63541666666667
30
0
0
SPLINE
5
122
100
AcDbEntity
8
0
100
AcDbSpline
70
1064
71
3
72
8
73
4
74
0
42
0.000000001
43
0.0000000001
44
0.0000000001
40
0
40
0
40
0
40
0
40
1
40
1
40
1
40
1
10
100.30354328155519
20
101.63541666666667
30
0
10
106.0185448964437
20
109.75812419255574
30
0
10
115.96687177022301
20
114.78520752588908
30
0
10
125.94166666666668
20
114.33541666666667
30
0
0
SPLINE
5
123
100
AcDbEntity
8
0
100
AcDbSpline
70
1064
71
3
72
8
73
4
74
0
42
0.000000001
43
0.0000000001
44
0.0000000001
40
0
40
0
40
0
40
0
40
1
40
1
40
1
40
1
10
125.94166666666668
20
114.33541666666667
30
0
10
135.49311854044598
20
114.09729126294454
30
0
10
144.62124354044599
20
109.33479126294455
30
0
10
150.91833979288739
20
102.27041505177816
30
0
0
SPLINE
5
124
100
AcDbEntity
8
0
100
AcDbSpline
70
1064
71
3
72
8
73
4
74
0
42
0.000000001
43
0.0000000001
44
0.0000000001
40
0
40
0
40
0
40
0
40
1
40
1
40
1
40
1
10
150.91833979288739
20
102.27041505177816
30
0
10
155.733743540446
20
96.846456718444813
30
0
10
158.80291989644371
20
90.020209948221833
30
0
10
160.54916343688967
20
83.035207525889078
30
0
0
SPLINE
5
125
100
AcDbEntity
8
0
100
AcDbSpline
70
1064
71
3
72
8
73
4
74
0
42
0.000000001
43
0.0000000001
44
0.0000000001
40
0
40
0
40
0
40
0
40
1
40
1
40
1
40
1
10
160.54916343688967
20
83.035207525889078
30
0
10
160.8666666666667
20
81.685834948221839
30
0
10
161.18416989644371
20
80.336458333333312
30
0
10
161.18416989644371
20
78.934165859222404
30
0
0
LINE
5
126
100
AcDbEntity
8
0
100
AcDbLine
10
161.18416989644371
20
78.934165859222404
30
0
11
161.39583333333334
21
78.934165859222404
31
0
0
SPLINE
5
127
100
AcDbEntity
8
0
100
AcDbSpline
70
1064
71
3
72
8
73
4
74
0
42
0.000000001
43
0.0000000001
44
0.0000000001
40
0
40
0
40
0
40
0
40
1
40
1
40
1
40
1
10
161.39583333333334
20
78.934165859222404
30
0
10
161.31646156311038
20
88.009375000000006
30
0
10
158.432496770223
20
97.005208333333314
30
0
10
153.51125322977705
20
104.62520914077759
30
0
0
SPLINE
5
128
100
AcDbEntity
8
0
100
AcDbSpline
70
1064
71
3
72
8
73
4
74
0
42
0.000000001
43
0.0000000001
44
0.0000000001
40
0
40
0
40
0
40
0
40
1
40
1
40
1
40
1
10
153.51125322977705
20
104.62520914077759
30
0
10
149.64832687377933
20
110.49895833333332
30
0
10
144.541871770223
20
115.55249959627787
30
0
10
138.56229489644369
20
119.28312419255575
30
0
0
SPLINE
5
129
100
AcDbEntity
8
0
100
AcDbSpline
70
1064
71
3
72
8
73
4
74
0
42
0.000000001
43
0.0000000001
44
0.0000000001
40
0
40
0
40
0
40
0
40
1
40
1
40
1
40
1
10
138.56229489644369
20
119.28312419255575
30
0
10
131.33916505177817
20
123.86041666666668
30
0
10
122.84603843688967
20
126.42687520186107
30
0
10
114.30000000000001
20
126.77083333333331
30
0
0
SPLINE
5
130
100
AcDbEntity
8
0
100
AcDbSpline
70
1064
71
3
72
8
73
4
74
0
42
0.000000001
43
0.0000000001
44
0.0000000001
40
0
40
0
40
0
40
0
40
1
40
1
40
1
40
1
10
114.30000000000001
20
126.77083333333331
30
0
10
105.40999838511152
20
127.08833353519439
30
0
10
96.467084948221853
20
124.9452079296112
30
0
10
88.688336563110369
20
120.63250080744425
30
0
0
SPLINE
5
131
100
AcDbEntity
8
0
100
AcDbSpline
70
1064
71
3
72
8
73
4
74
0
42
0.000000001
43
0.0000000001
44
0.0000000001
40
0
40
0
40
0
40
0
40
1
40
1
40
1
40
1
10
88.688336563110369
20
120.63250080744425
30
0
10
82.629371770223003
20
117.19291747411091
30
0
10
76.623334948221853
20
113.64750040372212
30
0
10
70.56437822977702
20
110.18145914077758
30
0
0
SPLINE
5
132
100
AcDbEntity
8
0
100
AcDbSpline
70
1064
71
3
72
8
73
4
74
0
42
0.000000001
43
0.0000000001
44
0.0000000001
40
0
40
0
40
0
40
0
40
1
40
1
40
1
40
1
10
70.56437822977702
20
110.18145914077758
30
0
10
55.377292474110931
20
101.37083333333334
30
0
10
40.163750807444259
20
92.613123385111479
30
0
10
24.950209140777591
20
83.828957525889081
30
0
0
SPLINE
5
133
100
AcDbEntity
8
0
100
AcDbSpline
70
1064
71
3
72
8
73
4
74
0
42
0.000000001
43
0.0000000001
44
0.0000000001
40
0
40
0
40
0
40
0
40
1
40
1
40
1
40
1
10
24.950209140777591
20
83.828957525889081
30
0
10
24.103541262944542
20
83.326250807444239
30
0
10
23.283333333333335
20
82.744168281555162
30
0
10
22.304375807444256
20
82.479584948221842
30
0
0
SPLINE
5
134
100
AcDbEntity
8
0
100
AcDbSpline
70
1064
71
3
72
8
73
4
74
0
42
0.000000001
43
0.0000000001
44
0.0000000001
40
0
40
0
40
0
40
0
40
1
40
1
40
1
40
1
10
22.304375807444256
20
82.479584948221842
30
0
10
22.542499192555749
20
82.797084140777585
30
0
10
22.833542474110928
20
83.061667474110905
30
0
10
23.151041666666671
20
83.246874999999989
30
0
0
SPLINE
5
135
100
AcDbEntity
8
0
100
AcDbSpline
70
1064
71
3
72
8
73
4
74
0
42
0.000000001
43
0.0000000001
44
0.0000000001
40
0
40
0
40
0
40
0
40
1
40
1
40
1
40
1
10
23.151041666666671
20
83.246874999999989
30
0
10
41.830626614888516
20
94.041875807444228
30
0
10
60.510207525889086
20
104.83687661488851
30
0
10
79.163336563110363
20
115.63187540372212
30
0
0
SPLINE
5
136
100
AcDbEntity
8
0
100
AcDbSpline
70
1064
71
3
72
8
73
4
74
0
42
0.000000001
43
0.0000000001
44
0.0000000001
40
0
40
0
40
0
40
0
40
1
40
1
40
1
40
1
10
79.163336563110363
20
115.63187540372212
30
0
10
84.64020671844483
20
118.67458373705546
30
0
10
89.90541343688966
20
122.24645873705546
30
0
10
95.85853843688966
20
124.3366664648056
30
0
0
SPLINE
5
137
100
AcDbEntity
8
0
100
AcDbSpline
70
1064
71
3
72
8
73
4
74
0
42
0.000000001
43
0.0000000001
44
0.0000000001
40
0
40
0
40
0
40
0
40
1
40
1
40
1
40
1
10
95.85853843688966
20
124.3366664648056
30
0
10
100.51520671844484
20
125.97708333333333
30
0
10
105.40999838511152
20
127.00895873705547
30
0
10
110.35770994822187
20
127.11479146480559
30
0
0
SPLINE
5
138
100
AcDbEntity
8
0
100
AcDbSpline
70
1064
71
3
72
8
73
4
74
0
42
0.000000001
43
0.0000000001
44
0.0000000001
40
0
40
0
40
0
40
0
40
1
40
1
40
1
40
1
10
110.35770994822187
20
127.11479146480559
30
0
10
112.36854489644371
20
127.37937479813894
30
0
10
114.40583171844483
20
127.08833353519439
30
0
10
116.44312661488853
20
127.03541666666666
30
0
0
SPLINE
5
139
100
AcDbEntity
8
0
100
AcDbSpline
70
1064
71
3
72
8
73
4
74
0
42
0.000000001
43
0.0000000001
44
0.0000000001
40
0
40
0
40
0
40
0
40
1
40
1
40
1
40
1
10
116.44312661488853
20
127.03541666666666
30
0
10
121.07333494822186
20
126.77083333333331
30
0
10
125.62416343688966
20
125.55375040372212
30
0
10
130.01624838511151
20
124.07208313147225
30
0
0
SPLINE
5
140
100
AcDbEntity
8
0
100
AcDbSpline
70
1064
71
3
72
8
73
4
74
0
42
0.000000001
43
0.0000000001
44
0.0000000001
40
0
40
0
40
0
40
0
40
1
40
1
40
1
40
1
10
130.01624838511151
20
124.07208313147225
30
0
10
128.98437500000003
20
124.86583313147227
30
0
10
127.79375000000002
20
125.315625
30
0
10
126.62958494822186
20
125.84479166666667
30
0
0
SPLINE
5
141
100
AcDbEntity
8
0
100
AcDbSpline
70
1064
71
3
72
8
73
4
74
0
42
0.000000001
43
0.0000000001
44
0.0000000001
40
0
40
0
40
0
40
0
40
1
40
1
40
1
40
1
10
126.62958494822186
20
125.84479166666667
30
0
10
120.99395510355633
20
128.33187540372214
30
0
10
114.88208656311036
20
129.62833313147226
30
0
10
108.74375000000002
20
129.94583333333333
30
0
0
SPLINE
5
142
100
AcDbEntity
8
0
100
AcDbSpline
70
1064
71
3
72
8
73
4
74
0
42
0.000000001
43
0.0000000001
44
0.0000000001
40
0
40
0
40
0
40
0
40
1
40
1
40
1
40
1
10
108.74375000000002
20
129.94583333333333
30
0
10
102.92291666666668
20
129.94583333333333
30
0
10
97.10208333333334
20
129.94583333333333
30
0
10
91.28125
20
129.94583333333333
30
0
0
SPLINE
5
143
100
AcDbEntity
8
0
100
AcDbSpline
70
1064
71
3
72
8
73
4
74
0
42
0.000000001
43
0.0000000001
44
0.0000000001
40
0
40
0
40
0
40
0
40
1
40
1
40
1
40
1
10
91.28125
20
129.94583333333333
30
0
10
86.174794896443686
20
129.62833313147226
30
0
10
81.068331718444838
20
128.86104207038881
30
0
10
76.094168281555184
20
127.64395813147226
30
0
0
SPLINE
5
144
100
AcDbEntity
8
0
100
AcDbSpline
70
1064
71
3
72
8
73
4
74
0
42
0.000000001
43
0.0000000001
44
0.0000000001
40
0
40
0
40
0
40
0
40
1
40
1
40
1
40
1
10
76.094168281555184
20
127.64395813147226
30
0
10
67.627501614888516
20
125.60666626294454
30
0
10
59.39895833333334
20
122.5904158592224
30
0
10
51.514374192555756
20
118.91270914077758
30
0
0
SPLINE
5
145
100
AcDbEntity
8
0
100
AcDbSpline
70
1064
71
3
72
8
73
4
74
0
42
0.000000001
43
0.0000000001
44
0.0000000001
40
0
40
0
40
0
40
0
40
1
40
1
40
1
40
1
10
51.514374192555756
20
118.91270914077758
30
0
10
46.037500000000009
20
116.31979166666667
30
0
10
40.560625807444254
20
113.56812459627787
30
0
10
35.851041666666667
20
109.73166626294454
30
0
0
SPLINE
5
146
100
AcDbEntity
8
0
100
AcDbSpline
70
1064
71
3
72
8
73
4
74
0
42
0.000000001
43
0.0000000001
44
0.0000000001
40
0
40
0
40
0
40
0
40
1
40
1
40
1
40
1
10
35.851041666666667
20
109.73166626294454
30
0
10
32.411458333333336
20
106.90062540372212
30
0
10
29.315834140777589
20
103.67270752588908
30
0
10
26.749374596277878
20
100.02145671844481
30
0
0
SPLINE
5
147
100
AcDbEntity
8
0
100
AcDbSpline
70
1064
71
3
72
8
73
4
74
0
42
0.000000001
43
0.0000000001
44
0.0000000001
40
0
40
0
40
0
40
0
40
1
40
1
40
1
40
1
10
26.749374596277878
20
100.02145671844481
30
0
10
20.849167474110924
20
91.792917474110922
30
0
10
17.753541262944541
20
81.685834948221839
30
0
10
17.674167474110924
20
71.55228843688964
30
0
0
SPLINE
5
148
100
AcDbEntity
8
0
100
AcDbSpline
70
1064
71
3
72
8
73
4
74
0
42
0.000000001
43
0.0000000001
44
0.0000000001
40
0
40
0
40
0
40
0
40
1
40
1
40
1
40
1
10
17.674167474110924
20
71.55228843688964
30
0
10
17.30375040372213
20
71.97562338511149
30
0
10
17.356666262944543
20
72.531249999999986
30
0
10
17.383124192555748
20
73.033956718444813
30
0
0
SPLINE
5
149
100
AcDbEntity
8
0
100
AcDbSpline
70
1064
71
3
72
8
73
4
74
0
42
0.000000001
43
0.0000000001
44
0.0000000001
40
0
40
0
40
0
40
0
40
1
40
1
40
1
40
1
10
17.383124192555748
20
73.033956718444813
30
0
10
17.568333737055465
20
88.961876614888496
30
0
10
26.326041666666669
20
104.41354166666667
30
0
10
39.687500000000007
20
113.01249999999999
30
0
0
SPLINE
5
150
100
AcDbEntity
8
0
100
AcDbSpline
70
1064
71
3
72
8
73
4
74
0
42
0.000000001
43
0.0000000001
44
0.0000000001
40
0
40
0
40
0
40
0
40
1
40
1
40
1
40
1
10
39.687500000000007
20
113.01249999999999
30
0
10
45.296665859222422
20
116.58437499999999
30
0
10
51.329166666666673
20
119.44187580744426
30
0
10
57.467499192555749
20
121.98187540372211
30
0
0
SPLINE
5
151
100
AcDbEntity
8
0
100
AcDbSpline
70
1064
71
3
72
8
73
4
74
0
42
0.000000001
43
0.0000000001
44
0.0000000001
40
0
40
0
40
0
40
0
40
1
40
1
40
1
40
1
10
57.467499192555749
20
121.98187540372211
30
0
10
66.569168281555179
20
125.68604207038879
30
0
10
76.041248385111501
20
128.62291666666667
30
0
10
85.804371770222986
20
129.89291646480558
30
0
0
SPLINE
5
152
100
AcDbEntity
8
0
100
AcDbSpline
70
1064
71
3
72
8
73
4
74
0
42
0.000000001
43
0.0000000001
44
0.0000000001
40
0
40
0
40
0
40
0
40
1
40
1
40
1
40
1
10
85.804371770222986
20
129.89291646480558
30
0
10
91.836876614888524
20
130.60729166666667
30
0
10
97.922293281555199
20
130.2897914648056
30
0
10
103.98125000000002
20
130.36916626294453
30
0
0
SPLINE
5
153
100
AcDbEntity
8
0
100
AcDbSpline
70
1064
71
3
72
8
73
4
74
0
42
0.000000001
43
0.0000000001
44
0.0000000001
40
0
40
0
40
0
40
0
40
1
40
1
40
1
40
1
10
103.98125000000002
20
130.36916626294453
30
0
10
108.05583171844484
20
130.36916626294453
30
0
10
112.18333333333335
20
130.2897914648056
30
0
10
116.20500322977703
20
129.49604146480561
30
0
0
SPLINE
5
154
100
AcDbEntity
8
0
100
AcDbSpline
70
1064
71
3
72
8
73
4
74
0
42
0.000000001
43
0.0000000001
44
0.0000000001
40
0
40
0
40
0
40
0
40
1
40
1
40
1
40
1
10
116.20500322977703
20
129.49604146480561
30
0
10
120.78229166666668
20
128.64937459627788
30
0
10
125.25374838511152
20
127.11479146480559
30
0
10
129.43416989644371
20
124.99812479813895
30
0
0
SPLINE
5
155
100
AcDbEntity
8
0
100
AcDbSpline
70
1064
71
3
72
8
73
4
74
0
42
0.000000001
43
0.0000000001
44
0.0000000001
40
0
40
0
40
0
40
0
40
1
40
1
40
1
40
1
10
129.43416989644371
20
124.99812479813895
30
0
10
131.73604005177819
20
123.80749979813893
30
0
10
133.90562661488852
20
122.43166626294453
30
0
10
136.18104489644369
20
121.18812540372213
30
0
0
SPLINE
5
156
100
AcDbEntity
8
0
100
AcDbSpline
70
1064
71
3
72
8
73
4
74
0
42
0.000000001
43
0.0000000001
44
0.0000000001
40
0
40
0
40
0
40
0
40
1
40
1
40
1
40
1
10
136.18104489644369
20
121.18812540372213
30
0
10
140.81125322977704
20
118.59520792961121
30
0
10
145.09750645955404
20
115.34083414077759
30
0
10
148.66938145955405
20
111.425
30
0
0
SPLINE
5
157
100
AcDbEntity
8
0
100
AcDbSpline
70
1064
71
3
72
8
73
4
74
0
42
0.000000001
43
0.0000000001
44
0.0000000001
40
0
40
0
40
0
40
0
40
1
40
1
40
1
40
1
10
148.66938145955405
20
111.425
30
0
10
149.56895510355633
20
110.55187419255574
30
0
10
150.25688145955405
20
109.54645873705545
30
0
10
151.13000322977706
20
108.6997908592224
30
0
0
SPLINE
5
158
100
AcDbEntity
8
0
100
AcDbSpline
70
1064
71
3
72
8
73
4
74
0
42
0.000000001
43
0.0000000001
44
0.0000000001
40
0
40
0
40
0
40
0
40
1
40
1
40
1
40
1
10
151.13000322977706
20
108.6997908592224
30
0
10
148.77520510355635
20
112.90666626294453
30
0
10
145.49438145955406
20
116.53145914077757
30
0
10
141.97541020711265
20
119.7858329296112
30
0
0
SPLINE
5
159
100
AcDbEntity
8
0
100
AcDbSpline
70
1064
71
3
72
8
73
4
74
0
42
0.000000001
43
0.0000000001
44
0.0000000001
40
0
40
0
40
0
40
0
40
1
40
1
40
1
40
1
10
141.97541020711265
20
119.7858329296112
30
0
10
137.53041343688966
20
123.80749979813893
30
0
10
132.29166666666669
20
126.90312499999999
30
0
10
126.76187661488854
20
129.15208333333334
30
0
0
SPLINE
5
160
100
AcDbEntity
8
0
100
AcDbSpline
70
1064
71
3
72
8
73
4
74
0
42
0.000000001
43
0.0000000001
44
0.0000000001
40
0
40
0
40
0
40
0
40
1
40
1
40
1
40
1
10
126.76187661488854
20
129.15208333333334
30
0
10
119.43291505177818
20
132.14187479813893
30
0
10
111.6541666666667
20
134.17916666666667
30
0
10
103.74312661488852
20
134.70833333333334
30
0
0
SPLINE
5
161
100
AcDbEntity
8
0
100
AcDbSpline
70
1064
71
3
72
8
73
4
74
0
42
0.000000001
43
0.0000000001
44
0.0000000001
40
0
40
0
40
0
40
0
40
1
40
1
40
1
40
1
10
103.74312661488852
20
134.70833333333334
30
0
10
94.641461563110369
20
134.68187489906947
30
0
10
85.539788436889665
20
134.76125020186106
30
0
10
76.43812338511151
20
134.6554164648056
30
0
0
SPLINE
5
162
100
AcDbEntity
8
0
100
AcDbSpline
70
1064
71
3
72
8
73
4
74
0
42
0.000000001
43
0.0000000001
44
0.0000000001
40
0
40
0
40
0
40
0
40
1
40
1
40
1
40
1
10
76.43812338511151
20
134.6554164648056
30
0
10
74.16270510355632
20
134.36437520186107
30
0
10
71.86083494822185
20
134.57604166666667
30
0
10
69.585416666666674
20
134.23208353519439
30
0
0
SPLINE
5
163
100
AcDbEntity
8
0
100
AcDbSpline
70
1064
71
3
72
8
73
4
74
0
42
0.000000001
43
0.0000000001
44
0.0000000001
40
0
40
0
40
0
40
0
40
1
40
1
40
1
40
1
10
69.585416666666674
20
134.23208353519439
30
0
10
59.901665051778167
20
133.51770833333333
30
0
10
50.244373385111494
20
131.87729146480561
30
0
10
41.11624838511149
20
128.49062499999999
30
0
0
SPLINE
5
164
100
AcDbEntity
8
0
100
AcDbSpline
70
1064
71
3
72
8
73
4
74
0
42
0.000000001
43
0.0000000001
44
0.0000000001
40
0
40
0
40
0
40
0
40
1
40
1
40
1
40
1
10
41.11624838511149
20
128.49062499999999
30
0
10
33.36395792961121
20
125.58020833333333
30
0
10
25.98208252588908
20
121.3204170703888
30
0
10
20.187709140777592
20
115.31437419255575
30
0
0
SPLINE
5
165
100
AcDbEntity
8
0
100
AcDbSpline
70
1064
71
3
72
8
73
4
74
0
42
0.000000001
43
0.0000000001
44
0.0000000001
40
0
40
0
40
0
40
0
40
1
40
1
40
1
40
1
10
20.187709140777592
20
115.31437419255575
30
0
10
13.070417070388796
20
108.19708414077759
30
0
10
8.6518752018610652
20
98.698540051778139
30
0
10
6.6675002018610643
20
88.908956718444827
30
0
0
SPLINE
5
166
100
AcDbEntity
8
0
100
AcDbSpline
70
1064
71
3
72
8
73
4
74
0
42
0.000000001
43
0.0000000001
44
0.0000000001
40
0
40
0
40
0
40
0
40
1
40
1
40
1
40
1
10
6.6675002018610643
20
88.908956718444827
30
0
10
5.9002081314722705
20
85.231250000000003
30
0
10
5.4239583333333341
20
81.500623385111481
30
0
10
5.2122918685277311
20
77.743540859222406
30
0
0
SPLINE
5
167
100
AcDbEntity
8
0
100
AcDbSpline
70
1064
71
3
72
8
73
4
74
0
42
0.000000001
43
0.0000000001
44
0.0000000001
40
0
40
0
40
0
40
0
40
1
40
1
40
1
40
1
10
5.2122918685277311
20
77.743540859222406
30
0
10
4.8683332324028026
20
75.759165859222406
30
0
10
5.1329165657361351
20
73.748334948221824
30
0
10
4.9741664648056041
20
71.763959948221839
30
0
0
SPLINE
5
168
100
AcDbEntity
8
0
100
AcDbSpline
70
1064
71
3
72
8
73
4
74
0
42
0.000000001
43
0.0000000001
44
0.0000000001
40
0
40
0
40
0
40
0
40
1
40
1
40
1
40
1
10
4.9741664648056041
20
71.763959948221839
30
0
10
4.3391665657361358
20
72.478334140777577
30
0
10
4.7360415657361354
20
73.510207525889072
30
0
10
4.7095831314722698
20
74.383333333333326
30
0
0
SPLINE
5
169
100
AcDbEntity
8
0
100
AcDbSpline
70
1064
71
3
72
8
73
4
74
0
42
0.000000001
43
0.0000000001
44
0.0000000001
40
0
40
0
40
0
40
0
40
1
40
1
40
1
40
1
10
4.7095831314722698
20
74.383333333333326
30
0
10
4.7625000000000011
20
82.135625807444242
30
0
10
5.9531250000000018
20
89.940834140777568
30
0
10
8.5725004037221293
20
97.269791666666663
30
0
0
SPLINE
5
170
100
AcDbEntity
8
0
100
AcDbSpline
70
1064
71
3
72
8
73
4
74
0
42
0.000000001
43
0.0000000001
44
0.0000000001
40
0
40
0
40
0
40
0
40
1
40
1
40
1
40
1
10
8.5725004037221293
20
97.269791666666663
30
0
10
11.165416868527732
20
104.62520914077759
30
0
10
15.425208131472273
20
111.3985420703888
30
0
10
21.087290859222417
20
116.79604247411092
30
0
0
SPLINE
5
171
100
AcDbEntity
8
0
100
AcDbSpline
70
1064
71
3
72
8
73
4
74
0
42
0.000000001
43
0.0000000001
44
0.0000000001
40
0
40
0
40
0
40
0
40
1
40
1
40
1
40
1
10
21.087290859222417
20
116.79604247411092
30
0
10
29.157082525889084
20
124.46895813147228
30
0
10
39.634584140777591
20
129.15208333333334
30
0
10
50.350209140777594
20
131.74499979813893
30
0
0
SPLINE
5
172
100
AcDbEntity
8
0
100
AcDbSpline
70
1064
71
3
72
8
73
4
74
0
42
0.000000001
43
0.0000000001
44
0.0000000001
40
0
40
0
40
0
40
0
40
1
40
1
40
1
40
1
10
50.350209140777594
20
131.74499979813893
30
0
10
57.493959140777598
20
133.49124989906949
30
0
10
64.79645671844483
20
134.44375000000002
30
0
10
72.125418281555184
20
134.81416656573612
30
0
0
ENDSEC
0
SECTION
2
OBJECTS
0
DICTIONARY
5
C
100
AcDbDictionary
3
ACAD_GROUP
350
D
3
ACAD_MLINESTYLE
350
17
0
DICTIONARY
5
D
100
AcDbDictionary
0
DICTIONARY
5
1A
330
C
100
AcDbDictionary
0
DICTIONARY
5
17
100
AcDbDictionary
0
ENDSEC
0
EOF
