0
SECTION
2
HEADER
9
$INSUNITS
70
4
9
$ACADVER
1
AC1014
9
$HANDSEED
5
FFFF
0
ENDSEC
0
SECTION
2
TABLES
0
TABLE
2
VPORT
5
8
100
AcDbSymbolTable
0
ENDTAB
0
TABLE
2
LTYPE
5
5
100
AcDbSymbolTable
0
LTYPE
5
14
100
AcDbSymbolTableRecord
100
AcDbLinetypeTableRecord
2
BYBLOCK
70
0
0
LTYPE
5
15
100
AcDbSymbolTableRecord
100
AcDbLinetypeTableRecord
2
BYLAYER
70
0
0
ENDTAB
0
TABLE
2
LAYER
5
2
100
AcDbSymbolTable
70
2
0
LAYER
5
50
100
AcDbSymbolTableRecord
100
AcDbLayerTableRecord
2
0
70
0
6
CONTINUOUS
0
ENDTAB
0
TABLE
2
STYLE
5
3
100
AcDbSymbolTable
70
1
0
STYLE
5
11
100
AcDbSymbolTableRecord
100
AcDbTextStyleTableRecord
2
STANDARD
70
0
0
ENDTAB
0
TABLE
2
VIEW
5
6
100
AcDbSymbolTable
70
0
0
ENDTAB
0
TABLE
2
UCS
5
7
100
AcDbSymbolTable
70
0
0
ENDTAB
0
TABLE
2
APPID
5
9
100
AcDbSymbolTable
70
2
0
APPID
5
12
100
AcDbSymbolTableRecord
100
AcDbRegAppTableRecord
2
ACAD
70
0
0
ENDTAB
0
TABLE
2
DIMSTYLE
5
A
100
AcDbSymbolTable
70
1
0
ENDTAB
0
TABLE
2
BLOCK_RECORD
5
1
100
AcDbSymbolTable
70
1
0
BLOCK_RECORD
5
1F
100
AcDbSymbolTableRecord
100
AcDbBlockTableRecord
2
*MODEL_SPACE
0
BLOCK_RECORD
5
1B
100
AcDbSymbolTableRecord
100
AcDbBlockTableRecord
2
*PAPER_SPACE
0
ENDTAB
0
ENDSEC
0
SECTION
2
BLOCKS
0
BLOCK
5
20
100
AcDbEntity
100
AcDbBlockBegin
2
*MODEL_SPACE
0
ENDBLK
5
21
100
AcDbEntity
100
AcDbBlockEnd
0
BLOCK
5
1C
100
AcDbEntity
100
AcDbBlockBegin
2
*PAPER_SPACE
0
ENDBLK
5
1D
100
AcDbEntity
100
AcDbBlockEnd
0
ENDSEC
0
SECTION
2
ENTITIES
0
SPLINE
5
100
100
AcDbEntity
8
0
100
AcDbSpline
70
1064
71
3
72
8
73
4
74
0
42
0.000000001
43
0.0000000001
44
0.0000000001
40
0
40
0
40
0
40
0
40
1
40
1
40
1
40
1
10
297.97938325589121
20
-61.6039191129654
30
0
10
302.22964058704036
20
-61.725367445777977
30
0
10
304.96026892667521
20
-64.887405038531924
30
0
10
313.93832489170188
20
-57.534205591195182
30
0
0
LINE
5
101
100
AcDbEntity
8
0
100
AcDbLine
10
313.93832489170188
20
-57.534205591195182
30
0
11
314.01592961011357
21
-57.533175497753774
31
0
0
LINE
5
102
100
AcDbEntity
8
0
100
AcDbLine
10
323.96184358532946
20
-67.750046312411854
30
0
11
323.8999415762778
21
-67.35210789214328
31
0
0
LINE
5
103
100
AcDbEntity
8
0
100
AcDbLine
10
333.97555309493265
20
-73.456447415947608
30
0
11
333.46679579072963
21
-73.447824319688962
31
0
0
LINE
5
104
100
AcDbEntity
8
0
100
AcDbLine
10
342.42758625639277
20
-81.651228977288653
30
0
11
342.41571653719382
21
-81.518698165279119
31
0
0
LINE
5
105
100
AcDbEntity
8
0
100
AcDbLine
10
342.41571653719382
20
-81.518698165279119
30
0
11
341.61099765439292
21
-81.597851809503538
31
0
0
SPLINE
5
106
100
AcDbEntity
8
0
100
AcDbSpline
70
1064
71
3
72
8
73
4
74
0
42
0.000000001
43
0.0000000001
44
0.0000000001
40
0
40
0
40
0
40
0
40
1
40
1
40
1
40
1
10
361.48454936584233
20
-115.24901581574161
30
0
10
361.864463694981
20
-111.01402568152611
30
0
10
360.8096014128422
20
-103.1430633736766
30
0
10
366.90137349794435
20
-99.124514317078678
30
0
0
LINE
5
107
100
AcDbEntity
8
0
100
AcDbLine
10
366.90137349794441
20
-99.124514317078678
30
0
11
366.92620620697869
21
-99.085492014428453
31
0
0
LINE
5
108
100
AcDbEntity
8
0
100
AcDbLine
10
365.66098111706867
20
-91.666854974694374
30
0
11
365.51567474050796
21
-91.440176260676992
31
0
0
SPLINE
5
109
100
AcDbEntity
8
0
100
AcDbSpline
70
1064
71
3
72
8
73
4
74
0
42
0.000000001
43
0.0000000001
44
0.0000000001
40
0
40
0
40
0
40
0
40
1
40
1
40
1
40
1
10
365.51567474050796
20
-91.440176260676992
30
0
10
351.42477898009952
20
-98.580107034953784
30
0
10
359.30858197306338
20
-110.14093462719634
30
0
10
361.48454936584233
20
-115.24901581574161
30
0
0
LINE
5
110
100
AcDbEntity
8
0
100
AcDbLine
10
354.55648747691504
20
-78.028979362076456
30
0
11
354.556074462021
21
-78.024105711425534
31
0
0
LINE
5
111
100
AcDbEntity
8
0
100
AcDbLine
10
354.556074462021
20
-78.024105711425534
30
0
11
353.51117552645587
21
-78.126883959406243
31
0
0
LINE
5
112
100
AcDbEntity
8
0
100
AcDbLine
10
328.92830100165355
20
-50.915207919785637
30
0
11
327.00738536741994
21
-53.469099609377736
31
0
0
SPLINE
5
113
100
AcDbEntity
8
0
100
AcDbSpline
70
1064
71
3
72
8
73
4
74
0
42
0.000000001
43
0.0000000001
44
0.0000000001
40
0
40
0
40
0
40
0
40
1
40
1
40
1
40
1
10
327.00738536741994
20
-53.469099609377736
30
0
10
318.13180939962155
20
-61.834192252121561
30
0
10
310.40099939312239
20
-56.336651195723874
30
0
10
305.58472277379934
20
-53.574317693873041
30
0
0
LINE
5
114
100
AcDbEntity
8
0
100
AcDbLine
10
341.81391493742342
20
-42.292313939429746
30
0
11
342.29101082470157
21
-42.32056186778636
31
0
0
SPLINE
5
115
100
AcDbEntity
8
0
100
AcDbSpline
70
1064
71
3
72
8
73
4
74
0
42
0.000000001
43
0.0000000001
44
0.0000000001
40
0
40
0
40
0
40
0
40
1
40
1
40
1
40
1
10
342.29101082470157
20
-42.32056186778636
30
0
10
330.64403734203051
20
-56.858313470172057
30
0
10
319.19703864665405
20
-49.660136970549651
30
0
10
314.94760274168493
20
-45.575080718403889
30
0
0
SPLINE
5
116
100
AcDbEntity
8
0
100
AcDbSpline
70
1064
71
3
72
8
73
4
74
0
42
0.000000001
43
0.0000000001
44
0.0000000001
40
0
40
0
40
0
40
0
40
1
40
1
40
1
40
1
10
369.75572561532744
20
-105.95738276687982
30
0
10
370.13563994446611
20
-101.72239263266428
30
0
10
369.08077766232742
20
-93.851430324814785
30
0
10
375.1725497474294
20
-89.83288126821688
30
0
0
LINE
5
117
100
AcDbEntity
8
0
100
AcDbLine
10
375.17254974742946
20
-89.832881268216852
30
0
11
375.61005680073197
21
-89.145368175653601
31
0
0
LINE
5
118
100
AcDbEntity
8
0
100
AcDbLine
10
365.47655656337946
20
-74.62697547827743
30
0
11
365.47655656337946
21
-74.62697547827743
31
0
0
LINE
5
119
100
AcDbEntity
8
0
100
AcDbLine
10
347.64982277217456
20
-37.340852499532716
30
0
11
347.70781607344315
21
-38.47839283958551
31
0
0
SPLINE
5
120
100
AcDbEntity
8
0
100
AcDbSpline
70
1064
71
3
72
8
73
4
74
0
42
0.000000001
43
0.0000000001
44
0.0000000001
40
0
40
0
40
0
40
0
40
1
40
1
40
1
40
1
10
347.70781607344327
20
-38.47839283958551
30
0
10
338.83224010564476
20
-46.843485482329342
30
0
10
329.58976044406603
20
-42.353721048757969
30
0
10
325.27734853195562
20
-38.58360148240061
30
0
0
LINE
5
121
100
AcDbEntity
8
0
100
AcDbLine
10
352.56601400506781
20
-45.969197608028452
30
0
11
346.3985760425183
21
-46.621605996898623
31
0
0
SPLINE
5
122
100
AcDbEntity
8
0
100
AcDbSpline
70
1064
71
3
72
8
73
4
74
0
42
0.000000001
43
0.0000000001
44
0.0000000001
40
0
40
0
40
0
40
0
40
1
40
1
40
1
40
1
10
346.3985760425183
20
-46.621605996898623
30
0
10
335.22667014235492
20
-51.805796569786764
30
0
10
340.22575657431247
20
-56.295551561677904
30
0
10
335.61185292906265
20
-59.690874189581749
30
0
0
LINE
5
123
100
AcDbEntity
8
0
100
AcDbLine
10
360.99226015859296
20
-54.248170411966257
30
0
11
360.37708769744648
21
-54.211728240464311
31
0
0
SPLINE
5
124
100
AcDbEntity
8
0
100
AcDbSpline
70
1064
71
3
72
8
73
4
74
0
42
0.000000001
43
0.0000000001
44
0.0000000001
40
0
40
0
40
0
40
0
40
1
40
1
40
1
40
1
10
378.35802159051701
20
-96.463999894839972
30
0
10
378.7379359196558
20
-92.22900976062445
30
0
10
377.41583632025606
20
-85.426968396777852
30
0
10
383.50760840535821
20
-81.408419340179904
30
0
0
LINE
5
125
100
AcDbEntity
8
0
100
AcDbLine
10
383.50760840535821
20
-81.408419340179904
30
0
11
383.5384062927364
21
-81.287654579914346
31
0
0
SPLINE
5
126
100
AcDbEntity
8
0
100
AcDbSpline
70
1064
71
3
72
8
73
4
74
0
42
0.000000001
43
0.0000000001
44
0.0000000001
40
0
40
0
40
0
40
0
40
1
40
1
40
1
40
1
10
383.41351262017508
20
-73.456862849877794
30
0
10
370.30247443414964
20
-80.730402841104791
30
0
10
376.18205419773807
20
-91.355918706294702
30
0
10
378.35802159051701
20
-96.463999894839972
30
0
0
LINE
5
127
100
AcDbEntity
8
0
100
AcDbLine
10
381.23289992072245
20
-59.727290750233095
30
0
11
371.52141423534431
21
-59.781372694596797
31
0
0
SPLINE
5
128
100
AcDbEntity
8
0
100
AcDbSpline
70
1064
71
3
72
8
73
4
74
0
42
0.000000001
43
0.0000000001
44
0.0000000001
40
0
40
0
40
0
40
0
40
1
40
1
40
1
40
1
10
355.93484302616775
20
-43.016508117620333
30
0
10
347.67975539979648
20
-48.198461012293706
30
0
10
353.62759851145569
20
-53.026841865673042
30
0
10
349.74578386796452
20
-55.707212141437722
30
0
0
SPLINE
5
129
100
AcDbEntity
8
0
100
AcDbSpline
70
1064
71
3
72
8
73
4
74
0
42
0.000000001
43
0.0000000001
44
0.0000000001
40
0
40
0
40
0
40
0
40
1
40
1
40
1
40
1
10
358.15188172795195
20
-64.774548634729669
30
0
10
365.54964590597945
20
-62.182986803218654
30
0
10
366.09747107634803
20
-66.646182348619732
30
0
10
371.98247036438914
20
-59.101279025870845
30
0
0
LINE
5
130
100
AcDbEntity
8
0
100
AcDbLine
10
371.98247036438914
20
-59.101279025870838
30
0
11
372.18579814695829
21
-51.63391427558637
31
0
0
LINE
5
131
100
AcDbEntity
8
0
100
AcDbLine
10
361.37181860297187
20
-33.210243447342826
30
0
11
361.4334841195697
21
-33.275776388320004
31
0
0
SPLINE
5
132
100
AcDbEntity
8
0
100
AcDbSpline
70
1064
71
3
72
8
73
4
74
0
42
0.000000001
43
0.0000000001
44
0.0000000001
40
0
40
0
40
0
40
0
40
1
40
1
40
1
40
1
10
355.26614546548075
20
-37.722567453725951
30
0
10
343.61917198280969
20
-38.025418788818534
30
0
10
341.55712790369921
20
-35.299275247293501
30
0
10
336.86682218201929
20
-31.655107695218938
30
0
0
LINE
5
133
100
AcDbEntity
8
0
100
AcDbLine
10
373.44417635770407
20
-29.942156050870018
30
0
11
373.73609251707074
21
-30.278227467118448
31
0
0
SPLINE
5
134
100
AcDbEntity
8
0
100
AcDbSpline
70
1064
71
3
72
8
73
4
74
0
42
0.000000001
43
0.0000000001
44
0.0000000001
40
0
40
0
40
0
40
0
40
1
40
1
40
1
40
1
10
366.22835164771146
20
-40.924769954182985
30
0
10
358.6031185095564
20
-44.154145610345111
30
0
10
363.55269277038201
20
-50.525854072618912
30
0
10
361.03363360136569
20
-53.488738304258412
30
0
0
SPLINE
5
135
100
AcDbEntity
8
0
100
AcDbSpline
70
1064
71
3
72
8
73
4
74
0
42
0.000000001
43
0.0000000001
44
0.0000000001
40
0
40
0
40
0
40
0
40
1
40
1
40
1
40
1
10
435.74844535028785
20
-41.387841589189513
30
0
10
436.68011258877141
20
-41.536227035701387
30
0
10
437.72200200227257
20
-41.067277661983397
30
0
10
437.98884276896388
20
-41.214284623181534
30
0
0
SPLINE
5
136
100
AcDbEntity
8
0
100
AcDbSpline
70
1064
71
3
72
8
73
4
74
0
42
0.000000001
43
0.0000000001
44
0.0000000001
40
0
40
0
40
0
40
0
40
1
40
1
40
1
40
1
10
437.98884276896388
20
-41.214284623181534
30
0
10
438.35650179716265
20
-41.416836989179195
30
0
10
437.94850791101658
20
-42.079227507471856
30
0
10
437.64172883694783
20
-42.413368570850295
30
0
0
SPLINE
5
137
100
AcDbEntity
8
0
100
AcDbSpline
70
1064
71
3
72
8
73
4
74
0
42
0.000000001
43
0.0000000001
44
0.0000000001
40
0
40
0
40
0
40
0
40
1
40
1
40
1
40
1
10
362.98137669959857
20
-19.060529417834321
30
0
10
364.7608501727529
20
-23.354294011488406
30
0
10
367.9207728291351
20
-26.841049870750162
30
0
10
371.48946358944227
20
-27.936010968830413
30
0
0
LINE
5
138
100
AcDbEntity
8
0
100
AcDbLine
10
371.48946358944221
20
-27.936010968830416
30
0
11
372.32093571731349
21
-30.507773596896822
31
0
0
SPLINE
5
139
100
AcDbEntity
8
0
100
AcDbSpline
70
1064
71
3
72
8
73
4
74
0
42
0.000000001
43
0.0000000001
44
0.0000000001
40
0
40
0
40
0
40
0
40
1
40
1
40
1
40
1
10
372.32093571731349
20
-30.507773596896822
30
0
10
369.74078887720179
20
-31.876873880486887
30
0
10
366.53324238573396
20
-33.534681862183362
30
0
10
359.75217099368058
20
-33.156882469416345
30
0
0
SPLINE
5
140
100
AcDbEntity
8
0
100
AcDbSpline
70
1064
71
3
72
8
73
4
74
0
42
0.000000001
43
0.0000000001
44
0.0000000001
40
0
40
0
40
0
40
0
40
1
40
1
40
1
40
1
10
359.75217099368058
20
-33.156882469416345
30
0
10
358.67685803216125
20
-33.096984450030284
30
0
10
358.13841789194237
20
-34.440176763066226
30
0
10
358.72733325467669
20
-35.341913875217131
30
0
0
SPLINE
5
141
100
AcDbEntity
8
0
100
AcDbSpline
70
1064
71
3
72
8
73
4
74
0
42
0.000000001
43
0.0000000001
44
0.0000000001
40
0
40
0
40
0
40
0
40
1
40
1
40
1
40
1
10
358.72733325467669
20
-35.341913875217131
30
0
10
359.77943856618799
20
-36.952891122967365
30
0
10
362.80842400112533
20
-37.554675495856642
30
0
10
365.92053398881728
20
-40.833497231389003
30
0
0
SPLINE
5
142
100
AcDbEntity
8
0
100
AcDbSpline
70
1064
71
3
72
8
73
4
74
0
42
0.000000001
43
0.0000000001
44
0.0000000001
40
0
40
0
40
0
40
0
40
1
40
1
40
1
40
1
10
365.92053398881728
20
-40.833497231389003
30
0
10
369.36234745017907
20
-44.459697265983792
30
0
10
372.23932183339582
20
-46.312400411010522
30
0
10
374.85402522315326
20
-46.866504298732757
30
0
0
LINE
5
143
100
AcDbEntity
8
0
100
AcDbLine
10
374.85402522315326
20
-46.866504298732764
30
0
11
374.85077400387718
21
-46.872756019334112
31
0
0
SPLINE
5
144
100
AcDbEntity
8
0
100
AcDbSpline
70
1064
71
3
72
8
73
4
74
0
42
0.000000001
43
0.0000000001
44
0.0000000001
40
0
40
0
40
0
40
0
40
1
40
1
40
1
40
1
10
379.14674179030169
20
-72.700149946076507
30
0
10
381.05288484543644
20
-70.722193471104077
30
0
10
383.03061472008329
20
-70.29105802671161
30
0
10
384.88970044094629
20
-69.915685145764016
30
0
0
SPLINE
5
145
100
AcDbEntity
8
0
100
AcDbSpline
70
1064
71
3
72
8
73
4
74
0
42
0.000000001
43
0.0000000001
44
0.0000000001
40
0
40
0
40
0
40
0
40
1
40
1
40
1
40
1
10
384.88970044094629
20
-69.915685145764016
30
0
10
382.14970595452212
20
-80.028838791533332
30
0
10
383.46704694708541
20
-82.855630644321835
30
0
10
385.91453817995017
20
-87.086541972677509
30
0
0
SPLINE
5
146
100
AcDbEntity
8
0
100
AcDbSpline
70
1064
71
3
72
8
73
4
74
0
42
0.000000001
43
0.0000000001
44
0.0000000001
40
0
40
0
40
0
40
0
40
1
40
1
40
1
40
1
10
385.91453817995017
20
-87.086541972677509
30
0
10
383.84252368651551
20
-66.976442881423168
30
0
10
409.24392921287972
20
-64.5503181709214
30
0
10
406.06323485998922
20
-76.258067749240013
30
0
0
SPLINE
5
147
100
AcDbEntity
8
0
100
AcDbSpline
70
1064
71
3
72
8
73
4
74
0
42
0.000000001
43
0.0000000001
44
0.0000000001
40
0
40
0
40
0
40
0
40
1
40
1
40
1
40
1
10
406.06323485998922
20
-76.258067749240013
30
0
10
407.939882106082
20
-76.778172146450089
30
0
10
410.23732615671418
20
-76.328238316717517
30
0
10
413.12107966633687
20
-74.498440687931435
30
0
0
SPLINE
5
148
100
AcDbEntity
8
0
100
AcDbSpline
70
1064
71
3
72
8
73
4
74
0
42
0.000000001
43
0.0000000001
44
0.0000000001
40
0
40
0
40
0
40
0
40
1
40
1
40
1
40
1
10
413.12107966633687
20
-74.498440687931435
30
0
10
410.06652616133363
20
-76.376428652617008
30
0
10
410.06280613932262
20
-78.44097477698881
30
0
10
410.3559514271376
20
-81.556285494279095
30
0
0
SPLINE
5
149
100
AcDbEntity
8
0
100
AcDbSpline
70
1064
71
3
72
8
73
4
74
0
42
0.000000001
43
0.0000000001
44
0.0000000001
40
0
40
0
40
0
40
0
40
1
40
1
40
1
40
1
10
410.3559514271376
20
-81.556285494279095
30
0
10
411.01160058574527
20
-79.124231408592181
30
0
10
413.11260103748936
20
-78.126831192339822
30
0
10
416.19559288334864
20
-76.741481777072053
30
0
0
SPLINE
5
150
100
AcDbEntity
8
0
100
AcDbSpline
70
1064
71
3
72
8
73
4
74
0
42
0.000000001
43
0.0000000001
44
0.0000000001
40
0
40
0
40
0
40
0
40
1
40
1
40
1
40
1
10
416.19559288334864
20
-76.741481777072053
30
0
10
418.36098559426864
20
-75.768469420856633
30
0
10
421.33675771942364
20
-70.526722365279738
30
0
10
418.12924899467669
20
-69.103540137325979
30
0
0
SPLINE
5
151
100
AcDbEntity
8
0
100
AcDbSpline
70
1064
71
3
72
8
73
4
74
0
42
0.000000001
43
0.0000000001
44
0.0000000001
40
0
40
0
40
0
40
0
40
1
40
1
40
1
40
1
10
418.12924899467669
20
-69.103540137325979
30
0
10
409.16854683791479
20
-65.127648592012122
30
0
10
400.75514111742842
20
-61.458536120767008
30
0
10
395.5441456143642
20
-52.976848168849401
30
0
0
SPLINE
5
152
100
AcDbEntity
8
0
100
AcDbSpline
70
1064
71
2
72
6
73
3
74
0
42
0.000000001
43
0.0000000001
44
0.0000000001
40
0
40
0
40
0
40
1
40
1
40
1
10
395.5441456143642
20
-52.976848168849401
30
0
10
401.46496663720211
20
-46.088981931702122
30
0
10
404.94171431541895
20
-46.093032412521275
30
0
0
SPLINE
5
153
100
AcDbEntity
8
0
100
AcDbSpline
70
1064
71
3
72
8
73
4
74
0
42
0.000000001
43
0.0000000001
44
0.0000000001
40
0
40
0
40
0
40
0
40
1
40
1
40
1
40
1
10
404.94171431541895
20
-46.093032412521275
30
0
10
412.8778431002234
20
-46.10224749242682
30
0
10
423.67614171364232
20
-56.718482185949561
30
0
10
431.39412991838765
20
-52.957511607736116
30
0
0
SPLINE
5
154
100
AcDbEntity
8
0
100
AcDbSpline
70
1064
71
3
72
8
73
4
74
0
42
0.000000001
43
0.0000000001
44
0.0000000001
40
0
40
0
40
0
40
0
40
1
40
1
40
1
40
1
10
418.3419511669228
20
-34.471759183439239
30
0
10
416.22180298767012
20
-34.615971407288981
30
0
10
412.25877101083097
20
-28.404847042385633
30
0
10
411.61282789950099
20
-28.380742432755643
30
0
0
SPLINE
5
155
100
AcDbEntity
8
0
100
AcDbSpline
70
1064
71
3
72
8
73
4
74
0
42
0.000000001
43
0.0000000001
44
0.0000000001
40
0
40
0
40
0
40
0
40
1
40
1
40
1
40
1
10
411.61282789950099
20
-28.380742432755643
30
0
10
408.4838739542767
20
-28.263996056698165
30
0
10
394.59015824381447
20
-25.163820352818334
30
0
10
390.16858162487199
20
-23.005178443263461
30
0
0
SPLINE
5
156
100
AcDbEntity
8
0
100
AcDbSpline
70
1064
71
3
72
8
73
4
74
0
42
0.000000001
43
0.0000000001
44
0.0000000001
40
0
40
0
40
0
40
0
40
1
40
1
40
1
40
1
10
390.16858162487199
20
-23.005178443263461
30
0
10
389.75148595898315
20
-22.801549725719443
30
0
10
388.93462955210987
20
-22.822793506239414
30
0
10
388.50563736912983
20
-23.02448667933605
30
0
0
SPLINE
5
157
100
AcDbEntity
8
0
100
AcDbSpline
70
1064
71
3
72
8
73
4
74
0
42
0.000000001
43
0.0000000001
44
0.0000000001
40
0
40
0
40
0
40
0
40
1
40
1
40
1
40
1
10
388.50563736912983
20
-23.02448667933605
30
0
10
377.5662422863374
20
-28.168880570050121
30
0
10
365.50895226418345
20
-22.580888217038538
30
0
10
362.98137669959857
20
-19.060491651113395
30
0
0
SPLINE
5
158
100
AcDbEntity
8
0
100
AcDbSpline
70
1064
71
3
72
8
73
4
74
0
42
0.000000001
43
0.0000000001
44
0.0000000001
40
0
40
0
40
0
40
0
40
1
40
1
40
1
40
1
10
376.07222857328998
20
-33.23422871386947
30
0
10
378.10647634580016
20
-36.705481334191781
30
0
10
381.74713159282879
20
-38.11924076527491
30
0
10
382.6659959129189
20
-34.123710525080412
30
0
0
SPLINE
5
159
100
AcDbEntity
8
0
100
AcDbSpline
70
1064
71
3
72
8
73
4
74
0
42
0.000000001
43
0.0000000001
44
0.0000000001
40
0
40
0
40
0
40
0
40
1
40
1
40
1
40
1
10
382.6659959129189
20
-34.123710525080412
30
0
10
385.0053421404167
20
-40.626120166793243
30
0
10
389.46004017360974
20
-37.771683074288106
30
0
10
391.59948714725482
20
-40.369419764670255
30
0
0
SPLINE
5
160
100
AcDbEntity
8
0
100
AcDbSpline
70
1064
71
3
72
8
73
4
74
0
42
0.000000001
43
0.0000000001
44
0.0000000001
40
0
40
0
40
0
40
0
40
1
40
1
40
1
40
1
10
391.59948714725482
20
-40.369419764670255
30
0
10
389.16661163538777
20
-41.090518650639858
30
0
10
388.42649720543278
20
-42.560446637417769
30
0
10
387.86753085239155
20
-44.101376059533528
30
0
0
SPLINE
5
161
100
AcDbEntity
8
0
100
AcDbSpline
70
1064
71
3
72
8
73
4
74
0
42
0.000000001
43
0.0000000001
44
0.0000000001
40
0
40
0
40
0
40
0
40
1
40
1
40
1
40
1
10
387.86753085239155
20
-44.101376059533528
30
0
10
385.39286646382175
20
-41.274905223872892
30
0
10
380.86930081502305
20
-40.459767202801594
30
0
10
376.53630604000875
20
-42.844499587170255
30
0
0
SPLINE
5
162
100
AcDbEntity
8
0
100
AcDbSpline
70
1064
71
3
72
8
73
4
74
0
42
0.000000001
43
0.0000000001
44
0.0000000001
40
0
40
0
40
0
40
0
40
1
40
1
40
1
40
1
10
376.53630604000875
20
-42.844499587170255
30
0
10
375.70362537706808
20
-40.831099044610312
30
0
10
372.91381658574471
20
-37.27798705668441
30
0
10
370.96737643938366
20
-40.582121936916344
30
0
0
SPLINE
5
163
100
AcDbEntity
8
0
100
AcDbSpline
70
1064
71
3
72
8
73
4
74
0
42
0.000000001
43
0.0000000001
44
0.0000000001
40
0
40
0
40
0
40
0
40
1
40
1
40
1
40
1
10
370.96737643938366
20
-40.582121936916344
30
0
10
370.07615735901027
20
-38.333227006032438
30
0
10
368.89853435050679
20
-38.937994949874728
30
0
10
368.27959444463767
20
-39.383255147892918
30
0
0
SPLINE
5
164
100
AcDbEntity
8
0
100
AcDbSpline
70
1064
71
3
72
8
73
4
74
0
42
0.000000001
43
0.0000000001
44
0.0000000001
40
0
40
0
40
0
40
0
40
1
40
1
40
1
40
1
10
368.27959444463767
20
-39.383255147892918
30
0
10
369.48767631356668
20
-37.550426739752645
30
0
10
368.03658447884976
20
-36.529422322922549
30
0
10
366.9647082889345
20
-35.380586997443693
30
0
0
SPLINE
5
165
100
AcDbEntity
8
0
100
AcDbSpline
70
1064
71
3
72
8
73
4
74
0
42
0.000000001
43
0.0000000001
44
0.0000000001
40
0
40
0
40
0
40
0
40
1
40
1
40
1
40
1
10
366.9647082889345
20
-35.380586997443693
30
0
10
369.21838071001531
20
-36.885534176198746
30
0
10
373.1488577734176
20
-37.526104971477345
30
0
10
370.17457743373916
20
-33.852998669494468
30
0
0
SPLINE
5
166
100
AcDbEntity
8
0
100
AcDbSpline
70
1064
71
3
72
8
73
4
74
0
42
0.000000001
43
0.0000000001
44
0.0000000001
40
0
40
0
40
0
40
0
40
1
40
1
40
1
40
1
10
370.17457743373916
20
-33.852998669494468
30
0
10
375.08351470285021
20
-38.018252553523133
30
0
10
377.0584120734278
20
-35.769640873046164
30
0
10
376.07222857328998
20
-33.23422871386947
30
0
0
SPLINE
5
167
100
AcDbEntity
8
0
100
AcDbSpline
70
1064
71
3
72
8
73
4
74
0
42
0.000000001
43
0.0000000001
44
0.0000000001
40
0
40
0
40
0
40
0
40
1
40
1
40
1
40
1
10
401.1089964091293
20
-34.668240549048306
30
0
10
406.08530950836951
20
-36.096445750885032
30
0
10
405.58650554176074
20
-37.488829217924973
30
0
10
409.09174821091506
20
-38.144695535177952
30
0
0
SPLINE
5
168
100
AcDbEntity
8
0
100
AcDbSpline
70
1064
71
3
72
8
73
4
74
0
42
0.000000001
43
0.0000000001
44
0.0000000001
40
0
40
0
40
0
40
0
40
1
40
1
40
1
40
1
10
384.90898035197807
20
-69.924343166535905
30
0
10
386.26561761766317
20
-69.511194122983696
30
0
10
390.26815358458919
20
-70.107124654129677
30
0
10
391.46892759301926
20
-64.479335618944035
30
0
0
SPLINE
5
169
100
AcDbEntity
8
0
100
AcDbSpline
70
1064
71
3
72
8
73
4
74
0
42
0.000000001
43
0.0000000001
44
0.0000000001
40
0
40
0
40
0
40
0
40
1
40
1
40
1
40
1
10
387.85340609876584
20
-47.786511062130813
30
0
10
382.34826448978208
20
-43.211960340084204
30
0
10
378.45230620930471
20
-47.978564279711506
30
0
10
374.75789003504025
20
-46.845515443579032
30
0
0
SPLINE
5
170
100
AcDbEntity
8
0
100
AcDbSpline
70
1064
71
3
72
8
73
4
74
0
42
0.000000001
43
0.0000000001
44
0.0000000001
40
0
40
0
40
0
40
0
40
1
40
1
40
1
40
1
10
372.29610409830565
20
-30.499842585502691
30
0
10
374.19701646259233
20
-29.628838142504009
30
0
10
376.02443478796022
20
-28.283445917974213
30
0
10
379.73977372561671
20
-29.233751033233872
30
0
0
SPLINE
5
171
100
AcDbEntity
8
0
100
AcDbSpline
70
1064
71
3
72
8
73
4
74
0
42
0.000000001
43
0.0000000001
44
0.0000000001
40
0
40
0
40
0
40
0
40
1
40
1
40
1
40
1
10
379.73977372561671
20
-29.233751033233872
30
0
10
384.29859460839839
20
-30.399807983454252
30
0
10
386.51117683711345
20
-33.65434571743225
30
0
10
387.71557645075234
20
-36.199114581717957
30
0
0
SPLINE
5
172
100
AcDbEntity
8
0
100
AcDbSpline
70
1064
71
3
72
8
73
4
74
0
42
0.000000001
43
0.0000000001
44
0.0000000001
40
0
40
0
40
0
40
0
40
1
40
1
40
1
40
1
10
393.84908076247586
20
-35.003354105490544
30
0
10
399.53884498669845
20
-34.835386614179377
30
0
10
405.03949235589209
20
-34.595105293978257
30
0
10
410.98134944228491
20
-34.814388317345426
30
0
0
SPLINE
5
173
100
AcDbEntity
8
0
100
AcDbSpline
70
1064
71
3
72
8
73
4
74
0
42
0.000000001
43
0.0000000001
44
0.0000000001
40
0
40
0
40
0
40
0
40
1
40
1
40
1
40
1
10
410.98134944228491
20
-34.814388317345426
30
0
10
413.81415564538054
20
-34.918936042544338
30
0
10
411.73175530369178
20
-29.121640522169855
30
0
10
406.55114312761123
20
-29.119355635553923
30
0
0
SPLINE
5
174
100
AcDbEntity
8
0
100
AcDbSpline
70
1064
71
3
72
8
73
4
74
0
42
0.000000001
43
0.0000000001
44
0.0000000001
40
0
40
0
40
0
40
0
40
1
40
1
40
1
40
1
10
406.55114312761123
20
-29.119355635553923
30
0
10
402.28259726185445
20
-29.117495624548397
30
0
10
402.09119552020968
20
-31.688908910446258
30
0
10
395.61269221284192
20
-31.413126872576221
30
0
0
SPLINE
5
175
100
AcDbEntity
8
0
100
AcDbSpline
70
1064
71
3
72
8
73
4
74
0
42
0.000000001
43
0.0000000001
44
0.0000000001
40
0
40
0
40
0
40
0
40
1
40
1
40
1
40
1
10
395.48252920917611
20
-60.053765169263869
30
0
10
398.06112761372981
20
-63.962970127105493
30
0
10
406.58167752147858
20
-66.587124638774242
30
0
10
411.19067149300815
20
-70.719228783511511
30
0
0
SPLINE
5
176
100
AcDbEntity
8
0
100
AcDbSpline
70
1064
71
2
72
6
73
3
74
0
42
0.000000001
43
0.0000000001
44
0.0000000001
40
0
40
0
40
0
40
1
40
1
40
1
10
411.19067149300815
20
-70.719228783511511
30
0
10
411.83344219978068
20
-71.295492294736121
30
0
10
414.09132561024467
20
-70.897733189960604
30
0
0
SPLINE
5
177
100
AcDbEntity
8
0
100
AcDbSpline
70
1064
71
3
72
8
73
4
74
0
42
0.000000001
43
0.0000000001
44
0.0000000001
40
0
40
0
40
0
40
0
40
1
40
1
40
1
40
1
10
390.26203537579937
20
-25.799717516382536
30
0
10
394.12679834479326
20
-26.77256936403403
30
0
10
397.42190697872422
20
-26.537367667797245
30
0
10
400.45427253518432
20
-26.178376102050571
30
0
0
SPLINE
5
178
100
AcDbEntity
8
0
100
AcDbSpline
70
1064
71
3
72
8
73
4
74
0
42
0.000000001
43
0.0000000001
44
0.0000000001
40
0
40
0
40
0
40
0
40
1
40
1
40
1
40
1
10
419.19789612995288
20
-40.062536832118994
30
0
10
426.00797236367617
20
-39.422409795811262
30
0
10
430.69521898096104
20
-40.322834514410033
30
0
10
432.89273228802745
20
-46.247300025817125
30
0
0
SPLINE
5
179
100
AcDbEntity
8
0
100
AcDbSpline
70
1064
71
3
72
8
73
4
74
0
42
0.000000001
43
0.0000000001
44
0.0000000001
40
0
40
0
40
0
40
0
40
1
40
1
40
1
40
1
10
411.37229165393359
20
-43.59668992614084
30
0
10
423.99396755358146
20
-41.788457095002578
30
0
10
422.67944018172705
20
-52.538395422277844
30
0
10
430.87323242003811
20
-49.844561310503607
30
0
0
SPLINE
5
180
100
AcDbEntity
8
0
100
AcDbSpline
70
1064
71
3
72
8
73
4
74
0
42
0.000000001
43
0.0000000001
44
0.0000000001
40
0
40
0
40
0
40
0
40
1
40
1
40
1
40
1
10
388.43172789628085
20
-56.70685947758507
30
0
10
390.91826991858142
20
-54.462675945136489
30
0
10
389.78762871090782
20
-51.179020069325802
30
0
10
394.22990149291684
20
-47.621697092016845
30
0
0
SPLINE
5
181
100
AcDbEntity
8
0
100
AcDbSpline
70
1064
71
3
72
8
73
4
74
0
42
0.000000001
43
0.0000000001
44
0.0000000001
40
0
40
0
40
0
40
0
40
1
40
1
40
1
40
1
10
394.22990149291684
20
-47.621697092016845
30
0
10
396.98670217015217
20
-45.414100070463739
30
0
10
402.67554110971213
20
-43.460843030975852
30
0
10
405.61250792911721
20
-42.42672412030479
30
0
0
SPLINE
5
182
100
AcDbEntity
8
0
100
AcDbSpline
70
1064
71
3
72
8
73
4
74
0
42
0.000000001
43
0.0000000001
44
0.0000000001
40
0
40
0
40
0
40
0
40
1
40
1
40
1
40
1
10
405.61250792911721
20
-42.42672412030479
30
0
10
409.83258020856761
20
-40.940811368895631
30
0
10
413.04892634601083
20
-36.983859834125369
30
0
10
419.31249924459792
20
-36.625425327512332
30
0
0
SPLINE
5
183
100
AcDbEntity
8
0
100
AcDbSpline
70
1064
71
3
72
8
73
4
74
0
42
0.000000001
43
0.0000000001
44
0.0000000001
40
0
40
0
40
0
40
0
40
1
40
1
40
1
40
1
10
378.61413660846563
20
-50.860929862340221
30
0
10
381.50699189783109
20
-51.036885015126899
30
0
10
384.15666727116451
20
-50.583419996987907
30
0
10
384.68319201093175
20
-48.629653106767549
30
0
0
SPLINE
5
184
100
AcDbEntity
8
0
100
AcDbSpline
70
1064
71
3
72
8
73
4
74
0
42
0.000000001
43
0.0000000001
44
0.0000000001
40
0
40
0
40
0
40
0
40
1
40
1
40
1
40
1
10
391.77863358795958
20
-36.893181937185922
30
0
10
394.69469652733318
20
-38.509522059307436
30
0
10
396.97514555354934
20
-41.168941246639321
30
0
10
393.38515436264072
20
-43.229993949325596
30
0
0
SPLINE
5
185
100
AcDbEntity
8
0
100
AcDbSpline
70
1064
71
3
72
8
73
4
74
0
42
0.000000001
43
0.0000000001
44
0.0000000001
40
0
40
0
40
0
40
0
40
1
40
1
40
1
40
1
10
134.9579929351807
20
-13.37694713274638
30
0
10
141.71144053141279
20
-10.920047680536909
30
0
10
155.97566998799644
20
-13.992349855105084
30
0
10
167.27346229553223
20
-14.158615748087566
30
0
0
SPLINE
5
186
100
AcDbEntity
8
0
100
AcDbSpline
70
1064
71
3
72
8
73
4
74
0
42
0.000000001
43
0.0000000001
44
0.0000000001
40
0
40
0
40
0
40
0
40
1
40
1
40
1
40
1
10
167.27346229553223
20
-14.158615748087566
30
0
10
166.82662264506024
20
-10.465684668223066
30
0
10
152.56174723307294
20
-7.8909518480300909
30
0
10
145.20589777628584
20
-4.7571204026540128
30
0
0
SPLINE
5
187
100
AcDbEntity
8
0
100
AcDbSpline
70
1064
71
3
72
8
73
4
74
0
42
0.000000001
43
0.0000000001
44
0.0000000001
40
0
40
0
40
0
40
0
40
1
40
1
40
1
40
1
10
145.20589777628584
20
-4.7571204026540128
30
0
10
140.13912048339844
20
-7.1120668967564917
30
0
10
137.31437365214032
20
-10.170973571141563
30
0
10
134.9579929351807
20
-13.37694713274638
30
0
0
SPLINE
5
188
100
AcDbEntity
8
0
100
AcDbSpline
70
1064
71
3
72
8
73
4
74
0
42
0.000000001
43
0.0000000001
44
0.0000000001
40
0
40
0
40
0
40
0
40
1
40
1
40
1
40
1
10
141.91481959025066
20
-36.616212177276616
30
0
10
142.62630716959637
20
-35.285794353485109
30
0
10
144.33473002115886
20
-34.351250298817959
30
0
10
144.92282396952314
20
-32.858449379603073
30
0
0
SPLINE
5
189
100
AcDbEntity
8
0
100
AcDbSpline
70
1064
71
3
72
8
73
4
74
0
42
0.000000001
43
0.0000000001
44
0.0000000001
40
0
40
0
40
0
40
0
40
1
40
1
40
1
40
1
10
144.92282396952314
20
-32.858449379603073
30
0
10
145.91727231343589
20
-30.334162648518884
30
0
10
139.32169621785482
20
-30.575326061248784
30
0
10
139.32683156331382
20
-32.11655546824138
30
0
0
SPLINE
5
190
100
AcDbEntity
8
0
100
AcDbSpline
70
1064
71
3
72
8
73
4
74
0
42
0.000000001
43
0.0000000001
44
0.0000000001
40
0
40
0
40
0
40
0
40
1
40
1
40
1
40
1
10
139.32683156331382
20
-32.11655546824138
30
0
10
139.33350105285646
20
-34.115940856933598
30
0
10
141.10416170756022
20
-35.255587863922123
30
0
10
141.91481959025066
20
-36.616212177276616
30
0
0
SPLINE
5
191
100
AcDbEntity
8
0
100
AcDbSpline
70
1064
71
3
72
8
73
4
74
0
42
0.000000001
43
0.0000000001
44
0.0000000001
40
0
40
0
40
0
40
0
40
1
40
1
40
1
40
1
10
147.76814448038738
20
-36.214262390136724
30
0
10
148.59456367492677
20
-34.952021121978767
30
0
10
149.77107454935714
20
-34.687268225351971
30
0
10
150.50978914896649
20
-33.262978951136276
30
0
0
SPLINE
5
192
100
AcDbEntity
8
0
100
AcDbSpline
70
1064
71
3
72
8
73
4
74
0
42
0.000000001
43
0.0000000001
44
0.0000000001
40
0
40
0
40
0
40
0
40
1
40
1
40
1
40
1
10
150.50978914896649
20
-33.262978951136276
30
0
10
151.44700584411623
20
-31.455969174702965
30
0
10
146.02400029500328
20
-30.462231381734213
30
0
10
145.71731681823732
20
-31.817029984792079
30
0
0
SPLINE
5
193
100
AcDbEntity
8
0
100
AcDbSpline
70
1064
71
3
72
8
73
4
74
0
42
0.000000001
43
0.0000000001
44
0.0000000001
40
0
40
0
40
0
40
0
40
1
40
1
40
1
40
1
10
145.71731681823732
20
-31.817029984792079
30
0
10
145.27588704427086
20
-33.767088603973392
30
0
10
147.08107401529952
20
-34.787250010172535
30
0
10
147.76814448038738
20
-36.214262390136724
30
0
0
SPLINE
5
194
100
AcDbEntity
8
0
100
AcDbSpline
70
1064
71
3
72
8
73
4
74
0
42
0.000000001
43
0.0000000001
44
0.0000000001
40
0
40
0
40
0
40
0
40
1
40
1
40
1
40
1
10
152.50806833902996
20
-35.449374485015873
30
0
10
153.37550570170089
20
-34.49019934336345
30
0
10
154.45869216918948
20
-33.734195343653369
30
0
10
154.699924214681
20
-32.789780282974249
30
0
0
SPLINE
5
195
100
AcDbEntity
8
0
100
AcDbSpline
70
1064
71
3
72
8
73
4
74
0
42
0.000000001
43
0.0000000001
44
0.0000000001
40
0
40
0
40
0
40
0
40
1
40
1
40
1
40
1
10
154.699924214681
20
-32.789780282974249
30
0
10
155.10771586100265
20
-31.193358023961387
30
0
10
151.53501726786297
20
-30.814242760340377
30
0
10
151.35484415690107
20
-32.278655958175662
30
0
0
SPLINE
5
196
100
AcDbEntity
8
0
100
AcDbSpline
70
1064
71
3
72
8
73
4
74
0
42
0.000000001
43
0.0000000001
44
0.0000000001
40
0
40
0
40
0
40
0
40
1
40
1
40
1
40
1
10
151.35484415690107
20
-32.278655958175662
30
0
10
151.14758936564129
20
-33.96305936177572
30
0
10
152.11212997436525
20
-33.994440682729092
30
0
10
152.50806833902996
20
-35.449374485015873
30
0
0
SPLINE
5
197
100
AcDbEntity
8
0
100
AcDbSpline
70
1064
71
3
72
8
73
4
74
0
42
0.000000001
43
0.0000000001
44
0.0000000001
40
0
40
0
40
0
40
0
40
1
40
1
40
1
40
1
10
155.73217709859216
20
-36.003454844156906
30
0
10
158.58431243896487
20
-34.903275712331144
30
0
10
160.35573209126792
20
-33.941754945119229
30
0
10
160.68697802225753
20
-32.112615140279139
30
0
0
SPLINE
5
198
100
AcDbEntity
8
0
100
AcDbSpline
70
1064
71
3
72
8
73
4
74
0
42
0.000000001
43
0.0000000001
44
0.0000000001
40
0
40
0
40
0
40
0
40
1
40
1
40
1
40
1
10
160.68697802225753
20
-32.112615140279139
30
0
10
160.90663515726729
20
-30.899636046091722
30
0
10
155.69766693115236
20
-31.322559197743736
30
0
10
155.44072202046715
20
-31.893765449523933
30
0
0
SPLINE
5
199
100
AcDbEntity
8
0
100
AcDbSpline
70
1064
71
3
72
8
73
4
74
0
42
0.000000001
43
0.0000000001
44
0.0000000001
40
0
40
0
40
0
40
0
40
1
40
1
40
1
40
1
10
155.44072202046715
20
-31.893765449523933
30
0
10
155.08791732788089
20
-32.678098630905154
30
0
10
156.40235582987469
20
-33.907931105295823
30
0
10
155.73217709859216
20
-36.003454844156906
30
0
0
SPLINE
5
200
100
AcDbEntity
8
0
100
AcDbSpline
70
1064
71
3
72
8
73
4
74
0
42
0.000000001
43
0.0000000001
44
0.0000000001
40
0
40
0
40
0
40
0
40
1
40
1
40
1
40
1
10
161.6467224121094
20
-39.679728349049896
30
0
10
164.34854393005372
20
-38.538426081339523
30
0
10
167.06756401062012
20
-34.214852778116864
30
0
10
165.40238787333175
20
-31.284655745824182
30
0
0
SPLINE
5
201
100
AcDbEntity
8
0
100
AcDbSpline
70
1064
71
3
72
8
73
4
74
0
42
0.000000001
43
0.0000000001
44
0.0000000001
40
0
40
0
40
0
40
0
40
1
40
1
40
1
40
1
10
165.40238787333175
20
-31.284655745824182
30
0
10
164.86028594970705
20
-30.33072899182638
30
0
10
160.49994163513188
20
-32.332546806335458
30
0
10
161.49532661437991
20
-32.909990564982095
30
0
0
SPLINE
5
202
100
AcDbEntity
8
0
100
AcDbSpline
70
1064
71
3
72
8
73
4
74
0
42
0.000000001
43
0.0000000001
44
0.0000000001
40
0
40
0
40
0
40
0
40
1
40
1
40
1
40
1
10
161.49532661437991
20
-32.909990564982095
30
0
10
163.51314595540367
20
-34.080554612477627
30
0
10
162.46950810750326
20
-37.067944939931238
30
0
10
161.6467224121094
20
-39.679728349049896
30
0
0
SPLINE
5
203
100
AcDbEntity
8
0
100
AcDbSpline
70
1064
71
3
72
8
73
4
74
0
42
0.000000001
43
0.0000000001
44
0.0000000001
40
0
40
0
40
0
40
0
40
1
40
1
40
1
40
1
10
149.8925787607829
20
-35.366563002268478
30
0
10
150.43235524495446
20
-36.541761779785162
30
0
10
151.63323478698732
20
-37.531595579783129
30
0
10
151.51806093851727
20
-38.845711104075122
30
0
0
SPLINE
5
204
100
AcDbEntity
8
0
100
AcDbSpline
70
1064
71
3
72
8
73
4
74
0
42
0.000000001
43
0.0000000001
44
0.0000000001
40
0
40
0
40
0
40
0
40
1
40
1
40
1
40
1
10
151.51806093851727
20
-38.845711104075122
30
0
10
151.37420667012535
20
-40.487108008066819
30
0
10
147.47525215148929
20
-39.797720177968344
30
0
10
147.69201863606773
20
-38.338276799519861
30
0
0
SPLINE
5
205
100
AcDbEntity
8
0
100
AcDbSpline
70
1064
71
3
72
8
73
4
74
0
42
0.000000001
43
0.0000000001
44
0.0000000001
40
0
40
0
40
0
40
0
40
1
40
1
40
1
40
1
10
147.69201863606773
20
-38.338276799519861
30
0
10
147.88825988769534
20
-37.017128435770672
30
0
10
149.07843271891278
20
-36.635724067687995
30
0
10
149.8925787607829
20
-35.366563002268478
30
0
0
SPLINE
5
206
100
AcDbEntity
8
0
100
AcDbSpline
70
1064
71
3
72
8
73
4
74
0
42
0.000000001
43
0.0000000001
44
0.0000000001
40
0
40
0
40
0
40
0
40
1
40
1
40
1
40
1
10
154.30886281331382
20
-35.015554873148609
30
0
10
155.36637255350752
20
-36.352141571044932
30
0
10
156.84598185221355
20
-38.342305946350102
30
0
10
156.28072242736818
20
-39.293402608235681
30
0
0
SPLINE
5
207
100
AcDbEntity
8
0
100
AcDbSpline
70
1064
71
3
72
8
73
4
74
0
42
0.000000001
43
0.0000000001
44
0.0000000001
40
0
40
0
40
0
40
0
40
1
40
1
40
1
40
1
10
156.28072242736818
20
-39.293402608235681
30
0
10
155.43891334533694
20
-40.709805170694999
30
0
10
151.59095700581869
20
-39.690786298116052
30
0
10
152.10762443542484
20
-38.308748563130706
30
0
0
SPLINE
5
208
100
AcDbEntity
8
0
100
AcDbSpline
70
1064
71
3
72
8
73
4
74
0
42
0.000000001
43
0.0000000001
44
0.0000000001
40
0
40
0
40
0
40
0
40
1
40
1
40
1
40
1
10
152.10762443542484
20
-38.308748563130706
30
0
10
152.54227167765302
20
-37.14608132044475
30
0
10
153.98170255025229
20
-36.543069839477546
30
0
10
154.30886281331382
20
-35.015554873148609
30
0
0
SPLINE
5
209
100
AcDbEntity
8
0
100
AcDbSpline
70
1064
71
3
72
8
73
4
74
0
42
0.000000001
43
0.0000000001
44
0.0000000001
40
0
40
0
40
0
40
0
40
1
40
1
40
1
40
1
10
145.10905291239422
20
-34.042289829254159
30
0
10
146.87231737772626
20
-35.494191678365077
30
0
10
147.50543441772462
20
-37.907779820760098
30
0
10
146.92244351704917
20
-38.848121325174972
30
0
0
SPLINE
5
210
100
AcDbEntity
8
0
100
AcDbSpline
70
1064
71
3
72
8
73
4
74
0
42
0.000000001
43
0.0000000001
44
0.0000000001
40
0
40
0
40
0
40
0
40
1
40
1
40
1
40
1
10
146.92244351704917
20
-38.848121325174972
30
0
10
146.05424715677898
20
-40.248516305287687
30
0
10
141.30962397257488
20
-39.213942019144696
30
0
10
141.85208117167156
20
-37.841823736826584
30
0
0
SPLINE
5
211
100
AcDbEntity
8
0
100
AcDbSpline
70
1064
71
3
72
8
73
4
74
0
42
0.000000001
43
0.0000000001
44
0.0000000001
40
0
40
0
40
0
40
0
40
1
40
1
40
1
40
1
10
141.85208117167156
20
-37.841823736826584
30
0
10
142.30843251546224
20
-36.687497393290208
30
0
10
144.07868944803877
20
-36.384100214640306
30
0
10
145.10905291239422
20
-34.042289829254159
30
0
0
SPLINE
5
212
100
AcDbEntity
8
0
100
AcDbSpline
70
1064
71
3
72
8
73
4
74
0
42
0.000000001
43
0.0000000001
44
0.0000000001
40
0
40
0
40
0
40
0
40
1
40
1
40
1
40
1
10
158.93913574218752
20
-34.884910392761235
30
0
10
160.31600583394373
20
-35.516049194335942
30
0
10
161.30917841593427
20
-38.84337759017945
30
0
10
160.78353220621747
20
-39.416311772664393
30
0
0
SPLINE
5
213
100
AcDbEntity
8
0
100
AcDbSpline
70
1064
71
3
72
8
73
4
74
0
42
0.000000001
43
0.0000000001
44
0.0000000001
40
0
40
0
40
0
40
0
40
1
40
1
40
1
40
1
10
160.78353220621747
20
-39.416311772664393
30
0
10
159.66963055928551
20
-40.630433400472015
30
0
10
156.37856852213542
20
-39.815972455342617
30
0
10
156.96438547770185
20
-38.461783472696943
30
0
0
SPLINE
5
214
100
AcDbEntity
8
0
100
AcDbSpline
70
1064
71
3
72
8
73
4
74
0
42
0.000000001
43
0.0000000001
44
0.0000000001
40
0
40
0
40
0
40
0
40
1
40
1
40
1
40
1
10
156.96438547770185
20
-38.461783472696943
30
0
10
157.45721715291344
20
-37.322560373942068
30
0
10
158.26349868774417
20
-37.071998310089114
30
0
10
158.93913574218752
20
-34.884910392761235
30
0
0
SPLINE
5
215
100
AcDbEntity
8
0
100
AcDbSpline
70
1064
71
3
72
8
73
4
74
0
42
0.000000001
43
0.0000000001
44
0.0000000001
40
0
40
0
40
0
40
0
40
1
40
1
40
1
40
1
10
167.15678660074872
20
-30.933772770563767
30
0
10
169.75525525410973
20
-31.814145390192671
30
0
10
170.5760384877523
20
-37.589884980519621
30
0
10
168.37891807556156
20
-40.254459095001224
30
0
0
SPLINE
5
216
100
AcDbEntity
8
0
100
AcDbSpline
70
1064
71
3
72
8
73
4
74
0
42
0.000000001
43
0.0000000001
44
0.0000000001
40
0
40
0
40
0
40
0
40
1
40
1
40
1
40
1
10
168.37891807556156
20
-40.254459095001224
30
0
10
167.68089866638184
20
-41.100987688700371
30
0
10
164.12003720601402
20
-40.519906393686938
30
0
10
164.55597635904951
20
-39.126184940338142
30
0
0
SPLINE
5
217
100
AcDbEntity
8
0
100
AcDbSpline
70
1064
71
3
72
8
73
4
74
0
42
0.000000001
43
0.0000000001
44
0.0000000001
40
0
40
0
40
0
40
0
40
1
40
1
40
1
40
1
10
164.55597635904951
20
-39.126184940338142
30
0
10
164.91188163757326
20
-37.988334496816009
30
0
10
165.98478126525879
20
-36.358266035715744
30
0
10
166.44799588521323
20
-34.826092116038005
30
0
0
SPLINE
5
218
100
AcDbEntity
8
0
100
AcDbSpline
70
1064
71
3
72
8
73
4
74
0
42
0.000000001
43
0.0000000001
44
0.0000000001
40
0
40
0
40
0
40
0
40
1
40
1
40
1
40
1
10
166.44799588521323
20
-34.826092116038005
30
0
10
166.9284736633301
20
-33.236831887563071
30
0
10
166.58581047058107
20
-31.856197086970013
30
0
10
167.15678660074872
20
-30.933772770563767
30
0
0
SPLINE
5
219
100
AcDbEntity
8
0
100
AcDbSpline
70
1064
71
3
72
8
73
4
74
0
42
0.000000001
43
0.0000000001
44
0.0000000001
40
0
40
0
40
0
40
0
40
0.93868267208364997
40
0.93868267208364997
40
0.93868267208364997
40
0.93868267208364997
10
350.09395526816633
20
-25.230506940290542
30
0
10
354.08358931407099
20
-27.118226593406689
30
0
10
362.50613015007002
20
-29.354150631465949
30
0
10
368.8659136232535
20
-26.665197418932912
30
0
0
SPLINE
5
220
100
AcDbEntity
8
0
100
AcDbSpline
70
1064
71
3
72
8
73
4
74
0
42
0.000000001
43
0.0000000001
44
0.0000000001
40
0
40
0
40
0
40
0
40
0.89283103705378575
40
0.89283103705378575
40
0.89283103705378575
40
0.89283103705378575
10
336.86682218201929
20
-31.655107695218938
30
0
10
342.91102367583875
20
-33.113206121979886
30
0
10
350.15391125750165
20
-34.183385875007041
30
0
10
355.78534017442257
20
-30.776446460393316
30
0
0
LINE
5
221
100
AcDbEntity
8
0
100
AcDbLine
10
359.2326786229479
20
-35.926168059924578
30
0
11
355.26614546548075
21
-37.722567453725958
31
0
0
SPLINE
5
222
100
AcDbEntity
8
0
100
AcDbSpline
70
1064
71
3
72
8
73
4
74
0
42
0.000000001
43
0.0000000001
44
0.0000000001
40
0.26262528764756282
40
0.26262528764756282
40
0.26262528764756282
40
0.26262528764756282
40
1
40
1
40
1
40
1
10
361.4334841195697
20
-33.275776388320004
30
0
10
355.25073804481161
20
-31.857348090723594
30
0
10
352.53068887786327
20
-27.731841469880408
30
0
10
350.09395526816633
20
-25.230506940290542
30
0
0
SPLINE
5
223
100
AcDbEntity
8
0
100
AcDbSpline
70
1064
71
3
72
8
73
4
74
0
42
0.000000001
43
0.0000000001
44
0.0000000001
40
0.45792097351098998
40
0.45792097351098998
40
0.45792097351098998
40
0.45792097351098998
40
1
40
1
40
1
40
1
10
352.79850761483004
20
-37.740435406879854
30
0
10
351.70802578211828
20
-39.538013788595549
30
0
10
351.4388097323245
20
-41.469619184880074
30
0
10
349.04898786690978
20
-42.97331243056307
30
0
0
SPLINE
5
224
100
AcDbEntity
8
0
100
AcDbSpline
70
1064
71
3
72
8
73
4
74
0
42
0.000000001
43
0.0000000001
44
0.0000000001
40
0
40
0
40
0
40
0
40
0.93487898941486747
40
0.93487898941486747
40
0.93487898941486747
40
0.93487898941486747
10
325.27734853195562
20
-38.58360148240061
30
0
10
329.60413627373526
20
-40.110369176516471
30
0
10
337.00674763110317
20
-40.661311165537683
30
0
10
343.43561543940677
20
-36.159442465518964
30
0
0
SPLINE
5
225
100
AcDbEntity
8
0
100
AcDbSpline
70
1064
71
3
72
8
73
4
74
0
42
0.000000001
43
0.0000000001
44
0.0000000001
40
0.53460836017443791
40
0.53460836017443791
40
0.53460836017443791
40
0.53460836017443791
40
1
40
1
40
1
40
1
10
342.89553680401781
20
-41.832155854297604
30
0
10
342.41769524827652
20
-43.996554008326719
30
0
10
342.2183965610775
20
-46.162417411297866
30
0
10
340.16665165606582
20
-47.453380258537123
30
0
0
SPLINE
5
226
100
AcDbEntity
8
0
100
AcDbSpline
70
1064
71
3
72
8
73
4
74
0
42
0.000000001
43
0.0000000001
44
0.0000000001
40
0
40
0
40
0
40
0
40
0.9339280325749364
40
0.9339280325749364
40
0.9339280325749364
40
0.9339280325749364
10
314.94760274168493
20
-45.575080718403889
30
0
10
318.74056558000586
20
-46.570880501109251
30
0
10
328.07531596838282
20
-47.47184329273901
30
0
10
333.88642443078902
20
-42.930711032943769
30
0
0
SPLINE
5
227
100
AcDbEntity
8
0
100
AcDbSpline
70
1064
71
3
72
8
73
4
74
0
42
0.000000001
43
0.0000000001
44
0.0000000001
40
0.67406964555625282
40
0.67406964555625282
40
0.67406964555625282
40
0.67406964555625282
40
1
40
1
40
1
40
1
10
331.19222305422193
20
-50.473347249054967
30
0
10
330.62188521215342
20
-51.888741418180686
30
0
10
329.76050137492507
20
-53.312341455875583
30
0
10
327.87926788668011
20
-54.78188971206955
30
0
0
SPLINE
5
228
100
AcDbEntity
8
0
100
AcDbSpline
70
1064
71
3
72
8
73
4
74
0
42
0.000000001
43
0.0000000001
44
0.0000000001
40
0
40
0
40
0
40
0
40
0.985279086325064
40
0.985279086325064
40
0.985279086325064
40
0.985279086325064
10
305.58472277379934
20
-53.574317693873041
30
0
10
309.77240313099037
20
-53.693978196262307
30
0
10
316.3981902487518
20
-54.808708744570666
30
0
10
322.52892868446708
20
-50.21810308900924
30
0
0
SPLINE
5
229
100
AcDbEntity
8
0
100
AcDbSpline
70
1064
71
3
72
8
73
4
74
0
42
0.000000001
43
0.0000000001
44
0.0000000001
40
0.65924212933119397
40
0.65924212933119397
40
0.65924212933119397
40
0.65924212933119397
40
1
40
1
40
1
40
1
10
320.34743399712011
20
-57.474327705009934
30
0
10
319.35619288639026
20
-59.04846907769668
30
0
10
318.43022396024207
20
-60.505602500054238
30
0
10
316.90310690106787
20
-61.410147509582643
30
0
0
SPLINE
5
230
100
AcDbEntity
8
0
100
AcDbSpline
70
1064
71
3
72
8
73
4
74
0
42
0.000000001
43
0.0000000001
44
0.0000000001
40
0.28863640458484668
40
0.28863640458484668
40
0.28863640458484668
40
0.28863640458484668
40
1
40
1
40
1
40
1
10
311.49330041582181
20
-66.756876769275479
30
0
10
305.66904392386158
20
-67.746802782785124
30
0
10
301.40551382479441
20
-63.568949321045324
30
0
10
297.97938325589121
20
-61.6039191129654
30
0
0
SPLINE
5
231
100
AcDbEntity
8
0
100
AcDbSpline
70
1064
71
3
72
8
73
4
74
0
42
0.000000001
43
0.0000000001
44
0.0000000001
40
0.0032689914446251463
40
0.0032689914446251463
40
0.0032689914446251463
40
0.0032689914446251463
40
1
40
1
40
1
40
1
10
319.70673054984394
20
-58.474817247577292
30
0
10
310.77619252399074
20
-59.695962634928094
30
0
10
313.62888211670906
20
-66.529572255701481
30
0
10
309.36213131729511
20
-69.487363322080412
30
0
0
SPLINE
5
232
100
AcDbEntity
8
0
100
AcDbSpline
70
1064
71
3
72
8
73
4
74
0
42
0.000000001
43
0.0000000001
44
0.0000000001
40
0.92821770617104193
40
0.92821770617104193
40
0.92821770617104193
40
0.92821770617104193
40
0.9481010665947649
40
0.9481010665947649
40
0.9481010665947649
40
0.9481010665947649
10
365.70789079445706
20
-41.159215047799542
30
0
10
365.78050996837942
20
-41.054937752314231
30
0
10
365.85158498473265
20
-40.946602064425484
30
0
10
365.92108038955303
20
-40.834072894282855
30
0
0
SPLINE
5
233
100
AcDbEntity
8
0
100
AcDbSpline
70
1064
71
3
72
8
73
4
74
0
42
0.000000001
43
0.0000000001
44
0.0000000001
40
0
40
0
40
0
40
0
40
0.7190010646283278
40
0.7190010646283278
40
0.7190010646283278
40
0.7190010646283278
10
349.04898786690978
20
-42.97331243056307
30
0
10
354.09438133350528
20
-42.258638078503083
30
0
10
359.28484773077332
20
-44.483513624154654
30
0
10
362.94396240921446
20
-43.260276499188599
30
0
0
SPLINE
5
234
100
AcDbEntity
8
0
100
AcDbSpline
70
1064
71
3
72
8
73
4
74
0
42
0.000000001
43
0.0000000001
44
0.0000000001
40
0.98991954801143267
40
0.98991954801143267
40
0.98991954801143267
40
0.98991954801143267
40
1
40
1
40
1
40
1
10
355.68252190598162
20
-43.197324252592452
30
0
10
355.72602511454397
20
-43.120837834849304
30
0
10
355.76952571155311
20
-43.04313298068196
30
0
10
355.81302646782615
20
-42.964191767459845
30
0
0
LINE
5
235
100
AcDbEntity
8
0
100
AcDbLine
10
344.82824948966027
20
-47.420550474946019
30
0
11
344.82457085606245
21
-47.40263722293161
31
0
0
LINE
5
236
100
AcDbEntity
8
0
100
AcDbLine
10
343.60717961486023
20
-41.474502998809719
30
0
11
343.58523858405903
21
-41.367660290463171
31
0
0
SPLINE
5
237
100
AcDbEntity
8
0
100
AcDbSpline
70
1064
71
3
72
8
73
4
74
0
42
0.000000001
43
0.0000000001
44
0.0000000001
40
0.11286554873286732
40
0.11286554873286732
40
0.11286554873286732
40
0.11286554873286732
40
1
40
1
40
1
40
1
10
330.88045441740826
20
-54.384395438949596
30
0
10
323.50319688720475
20
-58.497102517113774
30
0
10
330.01963779468906
20
-62.034218724882038
30
0
10
323.79288979930197
20
-66.192160271347106
30
0
0
SPLINE
5
238
100
AcDbEntity
8
0
100
AcDbSpline
70
1064
71
3
72
8
73
4
74
0
42
0.000000001
43
0.0000000001
44
0.0000000001
40
0
40
0
40
0
40
0
40
0.50471871996847129
40
0.50471871996847129
40
0.50471871996847129
40
0.50471871996847129
10
327.87926788668011
20
-54.78188971206955
30
0
10
331.03429147168362
20
-53.909636986563996
30
0
10
334.90132617108554
20
-54.709806567757909
30
0
10
338.2612985910884
20
-54.813300623711221
30
0
0
SPLINE
5
239
100
AcDbEntity
8
0
100
AcDbSpline
70
1064
71
3
72
8
73
4
74
0
42
0.000000001
43
0.0000000001
44
0.0000000001
40
0
40
0
40
0
40
0
40
0.24221174431302062
40
0.24221174431302062
40
0.24221174431302062
40
0.24221174431302062
10
340.16665165606582
20
-47.453380258537123
30
0
10
341.86630637482676
20
-47.212626065053826
30
0
10
343.4073598692359
20
-47.28455828708816
30
0
10
344.82824948966027
20
-47.420550474946019
30
0
0
SPLINE
5
240
100
AcDbEntity
8
0
100
AcDbSpline
70
1064
71
3
72
8
73
4
74
0
42
0.000000001
43
0.0000000001
44
0.0000000001
40
0
40
0
40
0
40
0
40
0.93301748611844482
40
0.93301748611844482
40
0.93301748611844482
40
0.93301748611844482
10
323.79288979930197
20
-66.192160271347106
30
0
10
329.4590187891481
20
-63.831729805178973
30
0
10
335.77480874670891
20
-70.133072972070494
30
0
10
339.81419612514708
20
-58.988533057844286
30
0
0
SPLINE
5
241
100
AcDbEntity
8
0
100
AcDbSpline
70
1064
71
3
72
8
73
4
74
0
42
0.000000001
43
0.0000000001
44
0.0000000001
40
0
40
0
40
0
40
0
40
0.60712941998228565
40
0.60712941998228565
40
0.60712941998228565
40
0.60712941998228565
10
316.90310690106787
20
-61.410147509582643
30
0
10
320.31379253869886
20
-60.67911596966983
30
0
10
323.48247473107159
20
-61.858932301785146
30
0
10
326.86478143233603
20
-61.253200257793345
30
0
0
SPLINE
5
242
100
AcDbEntity
8
0
100
AcDbSpline
70
1064
71
3
72
8
73
4
74
0
42
0.000000001
43
0.0000000001
44
0.0000000001
40
0
40
0
40
0
40
0
40
0.93761839709738282
40
0.93761839709738282
40
0.93761839709738282
40
0.93761839709738282
10
309.36213131729511
20
-69.487363322080412
30
0
10
314.53545039644473
20
-67.98547738226921
30
0
10
320.28400711593179
20
-71.639547462453748
30
0
10
325.76178043626305
20
-65.682659458274742
30
0
0
SPLINE
5
243
100
AcDbEntity
8
0
100
AcDbSpline
70
1064
71
3
72
8
73
4
74
0
42
0.000000001
43
0.0000000001
44
0.0000000001
40
0
40
0
40
0
40
0
40
0.94314660865479349
40
0.94314660865479349
40
0.94314660865479349
40
0.94314660865479349
10
335.61185292906265
20
-59.690874189581749
30
0
10
341.44264937480665
20
-57.662491929116683
30
0
10
344.83138037173148
20
-62.041094338380056
30
0
10
351.87791478424947
20
-55.127171392915137
30
0
0
SPLINE
5
244
100
AcDbEntity
8
0
100
AcDbSpline
70
1064
71
3
72
8
73
4
74
0
42
0.000000001
43
0.0000000001
44
0.0000000001
40
0.14630368875641586
40
0.14630368875641586
40
0.14630368875641586
40
0.14630368875641586
40
1
40
1
40
1
40
1
10
361.2312283244238
20
-53.227331472196646
30
0
10
356.84989631281587
20
-57.583724826293704
30
0
10
360.40116450257494
20
-62.562359487653836
30
0
10
358.15188172795195
20
-64.774548634729669
30
0
0
SPLINE
5
245
100
AcDbEntity
8
0
100
AcDbSpline
70
1064
71
3
72
8
73
4
74
0
42
0.000000001
43
0.0000000001
44
0.0000000001
40
0
40
0
40
0
40
0
40
0.88001222041638294
40
0.88001222041638294
40
0.88001222041638294
40
0.88001222041638294
10
349.74578386796452
20
-55.707212141437722
30
0
10
354.92332575154484
20
-53.779355908360714
30
0
10
358.3486874865593
20
-56.418072940094035
30
0
10
362.16584739447831
20
-53.029903292065811
30
0
0
SPLINE
5
246
100
AcDbEntity
8
0
100
AcDbSpline
70
1064
71
3
72
8
73
4
74
0
42
0.000000001
43
0.0000000001
44
0.0000000001
40
0.24409485413253088
40
0.24409485413253088
40
0.24409485413253088
40
0.24409485413253088
40
1
40
1
40
1
40
1
10
348.73207558877715
20
-57.663156408835583
30
0
10
345.55781239589521
20
-61.606037727379899
30
0
10
348.01568521097488
20
-65.447707406729464
30
0
10
345.01174428345422
20
-68.631786584579331
30
0
0
SPLINE
5
247
100
AcDbEntity
8
0
100
AcDbSpline
70
1064
71
3
72
8
73
4
74
0
42
0.000000001
43
0.0000000001
44
0.0000000001
40
0.098803988577311624
40
0.098803988577311624
40
0.098803988577311624
40
0.098803988577311624
40
0.10717748952443421
40
0.10717748952443421
40
0.10717748952443421
40
0.10717748952443421
10
339.81419320758187
20
-58.988541118488939
30
0
10
339.74958495898056
20
-59.023579320501661
30
0
10
339.68595444016057
20
-59.05885210555774
30
0
10
339.6232863038332
20
-59.094354898106268
30
0
0
SPLINE
5
248
100
AcDbEntity
8
0
100
AcDbSpline
70
1064
71
3
72
8
73
4
74
0
42
0.000000001
43
0.0000000001
44
0.0000000001
40
0.49463883137438652
40
0.49463883137438652
40
0.49463883137438652
40
0.49463883137438652
40
1
40
1
40
1
40
1
10
335.58510547734136
20
-65.046848808591193
30
0
10
335.19490906478717
20
-67.882925282122798
30
0
10
335.72343127083525
20
-70.785607425595231
30
0
10
333.7968976215999
20
-72.749057849673576
30
0
0
SPLINE
5
249
100
AcDbEntity
8
0
100
AcDbSpline
70
1064
71
3
72
8
73
4
74
0
42
0.000000001
43
0.0000000001
44
0.0000000001
40
0.028965053577931693
40
0.028965053577931693
40
0.028965053577931693
40
0.028965053577931693
40
1
40
1
40
1
40
1
10
327.15124366010059
20
-65.605780448577235
30
0
10
319.70959317842977
20
-69.033844507615015
30
0
10
324.31665089897604
20
-73.157139986239059
30
0
10
321.04734360490204
20
-77.016338530279455
30
0
0
SPLINE
5
250
100
AcDbEntity
8
0
100
AcDbSpline
70
1064
71
3
72
8
73
4
74
0
42
0.000000001
43
0.0000000001
44
0.0000000001
40
0.30814617991252441
40
0.30814617991252441
40
0.30814617991252441
40
0.30814617991252441
40
1
40
1
40
1
40
1
10
312.24035377062455
20
-69.090635377940231
30
0
10
310.70104391289169
20
-72.133047601492081
30
0
10
312.37008213991095
20
-75.619743091441265
30
0
10
310.04074264222476
20
-78.369387957476647
30
0
0
SPLINE
5
251
100
AcDbEntity
8
0
100
AcDbSpline
70
1064
71
3
72
8
73
4
74
0
42
0.000000001
43
0.0000000001
44
0.0000000001
40
0
40
0
40
0
40
0
40
0.85557810926873135
40
0.85557810926873135
40
0.85557810926873135
40
0.85557810926873135
10
310.04074264222476
20
-78.369387957476647
30
0
10
314.2458434216291
20
-75.823818686147689
30
0
10
317.58509267307056
20
-78.639267728087304
30
0
10
322.19825726595985
20
-74.779701666400541
30
0
0
SPLINE
5
252
100
AcDbEntity
8
0
100
AcDbSpline
70
1064
71
3
72
8
73
4
74
0
42
0.000000001
43
0.0000000001
44
0.0000000001
40
0
40
0
40
0
40
0
40
0.8738090388669898
40
0.8738090388669898
40
0.8738090388669898
40
0.8738090388669898
10
345.01174428345422
20
-68.631786584579331
30
0
10
350.50913355999222
20
-66.121977226474243
30
0
10
353.7168192944996
20
-70.040253269068359
30
0
10
358.37956542296558
20
-64.696269007923661
30
0
0
SPLINE
5
253
100
AcDbEntity
8
0
100
AcDbSpline
70
1064
71
3
72
8
73
4
74
0
42
0.000000001
43
0.0000000001
44
0.0000000001
40
0
40
0
40
0
40
0
40
0.84231581096222485
40
0.84231581096222485
40
0.84231581096222485
40
0.84231581096222485
10
333.7968976215999
20
-72.749057849673576
30
0
10
339.56705947844574
20
-69.624499902857096
30
0
10
340.95623771698882
20
-72.526614640174799
30
0
10
346.00934218641362
20
-68.235149200430598
30
0
0
SPLINE
5
254
100
AcDbEntity
8
0
100
AcDbSpline
70
1064
71
3
72
8
73
4
74
0
42
0.000000001
43
0.0000000001
44
0.0000000001
40
0.13728470166724882
40
0.13728470166724882
40
0.13728470166724882
40
0.13728470166724882
40
1
40
1
40
1
40
1
10
346.92298506094522
20
-67.972995290674575
30
0
10
341.59988746607149
20
-72.922271259158805
30
0
10
345.6241662902944
20
-77.112330196822569
30
0
10
342.48900285914766
20
-81.002115514795236
30
0
0
SPLINE
5
255
100
AcDbEntity
8
0
100
AcDbSpline
70
1064
71
3
72
8
73
4
74
0
42
0.000000001
43
0.0000000001
44
0.0000000001
40
0.21288448475087129
40
0.21288448475087129
40
0.21288448475087129
40
0.21288448475087129
40
1
40
1
40
1
40
1
10
334.73406966355049
20
-72.27494833413418
30
0
10
330.41277163617514
20
-76.791158705132162
30
0
10
333.52330293821137
20
-81.06851240984102
30
0
10
330.87320580459965
20
-84.196764671067399
30
0
0
SPLINE
5
256
100
AcDbEntity
8
0
100
AcDbSpline
70
1064
71
3
72
8
73
4
74
0
42
0.000000001
43
0.0000000001
44
0.0000000001
40
0
40
0
40
0
40
0
40
0.89803768633540337
40
0.89803768633540337
40
0.89803768633540337
40
0.89803768633540337
10
321.04734360490204
20
-77.016338530279455
30
0
10
325.46112994870089
20
-74.3444408811161
30
0
10
329.78453279740575
20
-78.036028611216182
30
0
10
334.39357712886749
20
-72.439299640174951
30
0
0
SPLINE
5
257
100
AcDbEntity
8
0
100
AcDbSpline
70
1064
71
3
72
8
73
4
74
0
42
0.000000001
43
0.0000000001
44
0.0000000001
40
0
40
0
40
0
40
0
40
0.81366041843968762
40
0.81366041843968762
40
0.81366041843968762
40
0.81366041843968762
10
330.87320580459965
20
-84.196764671067399
30
0
10
335.79477751313362
20
-81.468411241708623
30
0
10
338.51546722227943
20
-84.422635922057822
30
0
10
342.64003887888799
20
-80.807148380521951
30
0
0
SPLINE
5
258
100
AcDbEntity
8
0
100
AcDbSpline
70
1064
71
3
72
8
73
4
74
0
42
0.000000001
43
0.0000000001
44
0.0000000001
40
0.23178296571126414
40
0.23178296571126414
40
0.23178296571126414
40
0.23178296571126414
40
1
40
1
40
1
40
1
10
321.44024650613511
20
-76.794771453182349
30
0
10
318.10663835075957
20
-80.676341127189289
30
0
10
321.19335020772144
20
-84.638209177576272
30
0
10
318.60689586548972
20
-87.691338241560501
30
0
0
SPLINE
5
259
100
AcDbEntity
8
0
100
AcDbSpline
70
1064
71
3
72
8
73
4
74
0
42
0.000000001
43
0.0000000001
44
0.0000000001
40
0
40
0
40
0
40
0
40
0.88902056745903424
40
0.88902056745903424
40
0.88902056745903424
40
0.88902056745903424
10
318.60687698212922
20
-87.691357124920984
30
0
10
323.98427813616541
20
-84.71030721880814
30
0
10
326.73423209883543
20
-88.513207519122858
30
0
10
331.55873954510213
20
-83.118352078289206
30
0
0
SPLINE
5
260
100
AcDbEntity
8
0
100
AcDbSpline
70
1064
71
3
72
8
73
4
74
0
42
0.000000001
43
0.0000000001
44
0.0000000001
40
0.081662800348594369
40
0.081662800348594369
40
0.081662800348594369
40
0.081662800348594369
40
1
40
1
40
1
40
1
10
332.42043507145752
20
-83.487029601023735
30
0
10
324.970523447272
20
-88.096501246422122
30
0
10
330.51687240581379
20
-93.363565953470754
30
0
10
327.42497200068078
20
-97.013335734045526
30
0
0
SPLINE
5
261
100
AcDbEntity
8
0
100
AcDbSpline
70
1064
71
3
72
8
73
4
74
0
42
0.000000001
43
0.0000000001
44
0.0000000001
40
0
40
0
40
0
40
0
40
0.84781468040818952
40
0.84781468040818952
40
0.84781468040818952
40
0.84781468040818952
10
327.42497200068078
20
-97.013335734045526
30
0
10
332.55313191925984
20
-94.170464770747046
30
0
10
334.02409737588897
20
-98.040515043591313
30
0
10
339.67749912914138
20
-93.380832195699114
30
0
0
SPLINE
5
262
100
AcDbEntity
8
0
100
AcDbSpline
70
1064
71
3
72
8
73
4
74
0
42
0.000000001
43
0.0000000001
44
0.0000000001
40
0.13556348260559178
40
0.13556348260559178
40
0.13556348260559178
40
0.13556348260559178
40
1
40
1
40
1
40
1
10
358.68976639615767
20
-64.594480378481165
30
0
10
353.3464940746174
20
-69.234711086481639
30
0
10
356.97022813411388
20
-74.617260794935021
30
0
10
354.00551120438547
20
-78.006053218823666
30
0
0
SPLINE
5
263
100
AcDbEntity
8
0
100
AcDbSpline
70
1064
71
3
72
8
73
4
74
0
42
0.000000001
43
0.0000000001
44
0.0000000001
40
0
40
0
40
0
40
0
40
0.0073551323683719938
40
0.0073551323683719938
40
0.0073551323683719938
40
0.0073551323683719938
10
371.52141423534431
20
-59.781372694596797
30
0
10
371.4664547810508
20
-59.814369950619223
30
0
10
371.41221991528533
20
-59.847413460450845
30
0
10
371.35870058770286
20
-59.880502318456834
30
0
0
SPLINE
5
264
100
AcDbEntity
8
0
100
AcDbSpline
70
1064
71
3
72
8
73
4
74
0
42
0.000000001
43
0.0000000001
44
0.0000000001
40
0.037162840530124495
40
0.037162840530124495
40
0.037162840530124495
40
0.037162840530124495
40
1
40
1
40
1
40
1
10
381.17123230309164
20
-59.727634256328948
30
0
10
378.79729840889934
20
-64.557223556327742
30
0
10
381.01391950186439
20
-68.538408715550048
30
0
10
379.14674179030169
20
-72.700149946076507
30
0
0
SPLINE
5
265
100
AcDbEntity
8
0
100
AcDbSpline
70
1064
71
3
72
8
73
4
74
0
42
0.000000001
43
0.0000000001
44
0.0000000001
40
0
40
0
40
0
40
0
40
0.81212223714967813
40
0.81212223714967813
40
0.81212223714967813
40
0.81212223714967813
10
342.48900285914766
20
-81.002115514795236
30
0
10
347.40127060088173
20
-78.278919890956359
30
0
10
350.77384079317346
20
-81.245345542361704
30
0
10
354.6235909969073
20
-77.109207085730759
30
0
0
SPLINE
5
266
100
AcDbEntity
8
0
100
AcDbSpline
70
1064
71
3
72
8
73
4
74
0
42
0.000000001
43
0.0000000001
44
0.0000000001
40
0
40
0
40
0
40
0
40
0.98123772659783237
40
0.98123772659783237
40
0.98123772659783237
40
0.98123772659783237
10
361.03363360136569
20
-53.488738304258412
30
0
10
368.47544372555353
20
-50.103033305037464
30
0
10
370.48680965224895
20
-56.316008098571942
30
0
10
376.07679418112207
20
-47.025210036425719
30
0
0
LINE
5
267
100
AcDbEntity
8
0
100
AcDbLine
10
376.91134846214828
20
-71.618935934412733
30
0
11
376.67942421895293
21
-71.623118448014992
31
0
0
SPLINE
5
268
100
AcDbEntity
8
0
100
AcDbSpline
70
1064
71
3
72
8
73
4
74
0
42
0.000000001
43
0.0000000001
44
0.0000000001
40
0.30058253801195051
40
0.30058253801195051
40
0.30058253801195051
40
0.30058253801195051
40
1
40
1
40
1
40
1
10
372.59869647143296
20
-72.300485691119931
30
0
10
371.43587085929437
20
-75.522965502704011
30
0
10
373.39379946352369
20
-78.742130128509189
30
0
10
370.99504056246082
20
-81.484009432110042
30
0
0
SPLINE
5
269
100
AcDbEntity
8
0
100
AcDbSpline
70
1064
71
3
72
8
73
4
74
0
42
0.000000001
43
0.0000000001
44
0.0000000001
40
0
40
0
40
0
40
0
40
0.89440240213131583
40
0.89440240213131583
40
0.89440240213131583
40
0.89440240213131583
10
366.54124893056985
20
-73.529195562128209
30
0
10
372.30005204742338
20
-70.880113700875526
30
0
10
375.06365191744021
20
-74.207344574291028
30
0
10
379.94050182342687
20
-69.294419811396097
30
0
0
SPLINE
5
270
100
AcDbEntity
8
0
100
AcDbSpline
70
1064
71
3
72
8
73
4
74
0
42
0.000000001
43
0.0000000001
44
0.0000000001
40
0.098330799591146434
40
0.098330799591146434
40
0.098330799591146434
40
0.098330799591146434
40
1
40
1
40
1
40
1
10
355.15273867694975
20
-77.445141150376273
30
0
10
349.52375673875747
20
-82.562390900220151
30
0
10
354.6331233831263
20
-87.794552715545237
30
0
10
351.99167634453488
20
-91.677898885535484
30
0
0
SPLINE
5
271
100
AcDbEntity
8
0
100
AcDbSpline
70
1064
71
3
72
8
73
4
74
0
42
0.000000001
43
0.0000000001
44
0.0000000001
40
0.099743740381033383
40
0.099743740381033383
40
0.099743740381033383
40
0.099743740381033383
40
1
40
1
40
1
40
1
10
344.13570276600746
20
-80.26544916222241
30
0
10
337.32593447144336
20
-84.808686018605059
30
0
10
342.59635458060848
20
-89.940833017624101
30
0
10
339.56532992550791
20
-93.518743280191941
30
0
0
SPLINE
5
272
100
AcDbEntity
8
0
100
AcDbSpline
70
1064
71
3
72
8
73
4
74
0
42
0.000000001
43
0.0000000001
44
0.0000000001
40
0.096224824111865323
40
0.096224824111865323
40
0.096224824111865323
40
0.096224824111865323
40
1
40
1
40
1
40
1
10
342.39460381858464
20
-92.524876585634729
30
0
10
335.46309800466878
20
-97.081213134555227
30
0
10
340.78669621510954
20
-102.23953335880195
30
0
10
337.74384097532516
20
-105.83141186923655
30
0
0
SPLINE
5
273
100
AcDbEntity
8
0
100
AcDbSpline
70
1064
71
3
72
8
73
4
74
0
42
0.000000001
43
0.0000000001
44
0.0000000001
40
0
40
0
40
0
40
0
40
0.80910845880465654
40
0.80910845880465654
40
0.80910845880465654
40
0.80910845880465654
10
339.56532992550791
20
-93.518743280191941
30
0
10
344.45936828566892
20
-90.805661050255239
30
0
10
348.99139448092563
20
-94.206546940562319
30
0
10
352.7024333603897
20
-89.938748354976667
30
0
0
SPLINE
5
274
100
AcDbEntity
8
0
100
AcDbSpline
70
1064
71
3
72
8
73
4
74
0
42
0.000000001
43
0.0000000001
44
0.0000000001
40
0
40
0
40
0
40
0
40
0.94411729250406551
40
0.94411729250406551
40
0.94411729250406551
40
0.94411729250406551
10
337.74384097532516
20
-105.83141186923655
30
0
10
343.45450460234053
20
-102.66562139776758
30
0
10
344.62995100642581
20
-107.82439674391583
30
0
10
352.09624612544792
20
-100.25853467126277
30
0
0
LINE
5
275
100
AcDbEntity
8
0
100
AcDbLine
10
352.11127381909102
20
-90.549463368774553
30
0
11
352.11127381909102
21
-90.549463368774553
31
0
0
SPLINE
5
276
100
AcDbEntity
8
0
100
AcDbSpline
70
1064
71
3
72
8
73
4
74
0
42
0.000000001
43
0.0000000001
44
0.0000000001
40
0.31576374267314578
40
0.31576374267314578
40
0.31576374267314578
40
0.31576374267314578
40
1
40
1
40
1
40
1
10
352.6767479821192
20
-91.159443911766033
30
0
10
351.08983836943298
20
-94.882515049637163
30
0
10
353.69957409661447
20
-98.735640435127294
30
0
10
351.39586855523191
20
-101.45500424851971
30
0
0
SPLINE
5
277
100
AcDbEntity
8
0
100
AcDbSpline
70
1064
71
3
72
8
73
4
74
0
42
0.000000001
43
0.0000000001
44
0.0000000001
40
0
40
0
40
0
40
0
40
0.45602430152367729
40
0.45602430152367729
40
0.45602430152367729
40
0.45602430152367729
10
351.39586855523191
20
-101.45500424851971
30
0
10
354.15421374435482
20
-99.925874976146218
30
0
10
355.80207667071028
20
-100.23412192756118
30
0
10
357.60723402531642
20
-100.10327700041316
30
0
0
SPLINE
5
278
100
AcDbEntity
8
0
100
AcDbSpline
70
1064
71
3
72
8
73
4
74
0
42
0.000000001
43
0.0000000001
44
0.0000000001
40
0.12875962861792986
40
0.12875962861792986
40
0.12875962861792986
40
0.12875962861792986
40
1
40
1
40
1
40
1
10
351.88069779171116
20
-101.1990905412862
30
0
10
344.20842559503234
20
-108.40224439355383
30
0
10
350.72366302370034
20
-118.32434577772803
30
0
10
352.61945366310039
20
-122.77469587754
30
0
0
SPLINE
5
279
100
AcDbEntity
8
0
100
AcDbSpline
70
1064
71
3
72
8
73
4
74
0
42
0.000000001
43
0.0000000001
44
0.0000000001
40
0
40
0
40
0
40
0
40
0.98645896632106922
40
0.98645896632106922
40
0.98645896632106922
40
0.98645896632106922
10
352.61947254646083
20
-122.77471476090049
30
0
10
352.99424244287366
20
-118.59707077072231
30
0
10
350.25663840800866
20
-115.53946390620561
30
0
10
358.20671311348087
20
-107.73034393999811
30
0
0
SPLINE
5
280
100
AcDbEntity
8
0
100
AcDbSpline
70
1064
71
3
72
8
73
4
74
0
42
0.000000001
43
0.0000000001
44
0.0000000001
40
0
40
0
40
0
40
0
40
0.25715701889468617
40
0.25715701889468617
40
0.25715701889468617
40
0.25715701889468617
10
362.397843094596
20
-87.82590106821408
30
0
10
364.05360412386256
20
-87.064241671253171
30
0
10
365.45587108120162
20
-86.808405332929297
30
0
10
366.72909187564443
20
-86.714433211627266
30
0
0
SPLINE
5
281
100
AcDbEntity
8
0
100
AcDbSpline
70
1064
71
3
72
8
73
4
74
0
42
0.000000001
43
0.0000000001
44
0.0000000001
40
0.057761098582394123
40
0.057761098582394123
40
0.057761098582394123
40
0.057761098582394123
40
1
40
1
40
1
40
1
10
371.13707885683289
20
-81.419457803612474
30
0
10
360.94357065718509
20
-88.902196672009325
30
0
10
367.70546337299527
20
-101.14434886870933
30
0
10
369.75574449868787
20
-105.95736388351936
30
0
0
SPLINE
5
282
100
AcDbEntity
8
0
100
AcDbSpline
70
1064
71
3
72
8
73
4
74
0
42
0.000000001
43
0.0000000001
44
0.0000000001
40
0
40
0
40
0
40
0
40
0.34150144918351211
40
0.34150144918351211
40
0.34150144918351211
40
0.34150144918351211
10
370.99504056246082
20
-81.484009432110042
30
0
10
373.1938714301794
20
-80.472534851465156
30
0
10
374.8833222900609
20
-80.259610733515217
30
0
10
376.39741874617124
20
-80.103550921712895
30
0
0
SPLINE
5
283
100
AcDbEntity
8
0
100
AcDbSpline
70
1064
71
3
72
8
73
4
74
0
42
0.000000001
43
0.0000000001
44
0.0000000001
40
0
40
0
40
0
40
0
40
0.011141530842838396
40
0.011141530842838396
40
0.011141530842838396
40
0.011141530842838396
10
411.0998047624642
20
-52.320150983736092
30
0
10
411.10993838519266
20
-52.299861226598154
30
0
10
411.11928412194197
20
-52.279684457916595
30
0
10
411.12785787579264
20
-52.259622558597052
30
0
0
SPLINE
5
284
100
AcDbEntity
8
0
100
AcDbSpline
70
1064
71
3
72
8
73
4
74
0
42
0.000000001
43
0.0000000001
44
0.0000000001
40
0
40
0
40
0
40
0
40
1.1149833007533108e-06
40
1.1149833007533108e-06
40
1.1149833007533108e-06
40
1.1149833007533108e-06
10
408.40350637214965
20
-55.312927574987228
30
0
10
408.40350727200354
20
-55.312926153715374
30
0
10
408.40350817185788
20
-55.312924732444756
30
0
10
408.40350907171262
20
-55.312923311175368
30
0
0
SPLINE
5
285
100
AcDbEntity
8
0
100
AcDbSpline
70
1064
71
3
72
8
73
4
74
0
42
0.000000001
43
0.0000000001
44
0.0000000001
40
0
40
0
40
0
40
0
40
0.012194674120432117
40
0.012194674120432117
40
0.012194674120432117
40
0.012194674120432117
10
413.36739422020565
20
-52.684467657133105
30
0
10
413.36065725305338
20
-52.70403608735819
30
0
10
413.35414178122397
20
-52.723400231983121
30
0
10
413.3478435589908
20
-52.742564893446087
30
0
0
SPLINE
5
286
100
AcDbEntity
8
0
100
AcDbSpline
70
1064
71
3
72
8
73
4
74
0
42
0.000000001
43
0.0000000001
44
0.0000000001
40
0
40
0
40
0
40
0
40
0.077181392419427786
40
0.077181392419427786
40
0.077181392419427786
40
0.077181392419427786
10
429.75205177595615
20
-53.79309086650774
30
0
10
429.74037473419526
20
-53.709216418642391
30
0
10
429.70105646141872
20
-53.633299790825205
30
0
10
429.63876047393728
20
-53.565028020585274
30
0
0
SPLINE
5
287
100
AcDbEntity
8
0
100
AcDbSpline
70
1064
71
3
72
8
73
4
74
0
42
0.000000001
43
0.0000000001
44
0.0000000001
40
0.15553457784726049
40
0.15553457784726049
40
0.15553457784726049
40
0.15553457784726049
40
1
40
1
40
1
40
1
10
433.57190933476215
20
-38.911185749001916
30
0
10
436.79943383745444
20
-38.80055038814735
30
0
10
439.88592721338142
20
-38.547202079381869
30
0
10
440.27658077231848
20
-39.115880633501035
30
0
0
SPLINE
5
288
100
AcDbEntity
8
0
100
AcDbSpline
70
1064
71
3
72
8
73
4
74
0
42
0.000000001
43
0.0000000001
44
0.0000000001
40
0
40
0
40
0
40
0
40
0.74388954058193923
40
0.74388954058193923
40
0.74388954058193923
40
0.74388954058193923
10
440.27658077231848
20
-39.115880633501035
30
0
10
441.39196538022708
20
-40.739574844595609
30
0
10
438.97932159451364
20
-44.101185585517356
30
0
10
436.7902004232584
20
-46.653488690591203
30
0
0
SPLINE
5
289
100
AcDbEntity
8
0
100
AcDbSpline
70
1064
71
3
72
8
73
4
74
0
42
0.000000001
43
0.0000000001
44
0.0000000001
40
0
40
0
40
0
40
0
40
0.86272423731939352
40
0.86272423731939352
40
0.86272423731939352
40
0.86272423731939352
10
409.09174821091506
20
-38.144695535177952
30
0
10
409.35906940825527
20
-38.194717458295329
30
0
10
410.92097409594066
20
-37.24572036300551
30
0
10
410.54973519010508
20
-34.799236028320223
30
0
0
SPLINE
5
290
100
AcDbEntity
8
0
100
AcDbSpline
70
1064
71
3
72
8
73
4
74
0
42
0.000000001
43
0.0000000001
44
0.0000000001
40
0.13382635014448138
40
0.13382635014448138
40
0.13382635014448138
40
0.13382635014448138
40
0.19903607740683255
40
0.19903607740683255
40
0.19903607740683255
40
0.19903607740683255
10
391.58624414562803
20
-40.353444880401533
30
0
10
391.46309575895265
20
-40.399319147838895
30
0
10
391.34116864218271
20
-40.445258012503629
30
0
10
391.22059211904775
20
-40.492446429642506
30
0
0
SPLINE
5
291
100
AcDbEntity
8
0
100
AcDbSpline
70
1064
71
3
72
8
73
4
74
0
42
0.000000001
43
0.0000000001
44
0.0000000001
40
0
40
0
40
0
40
0
40
0.74200331870089986
40
0.74200331870089986
40
0.74200331870089986
40
0.74200331870089986
10
431.39412991838765
20
-52.957511607736116
30
0
10
434.02774850191838
20
-51.67415481073391
30
0
10
436.18763599855629
20
-49.339681822996589
30
0
10
436.7902025040209
20
-46.65347928398576
30
0
0
SPLINE
5
292
100
AcDbEntity
8
0
100
AcDbSpline
70
1064
71
3
72
8
73
4
74
0
42
0.000000001
43
0.0000000001
44
0.0000000001
40
0.25287619768024217
40
0.25287619768024217
40
0.25287619768024217
40
0.25287619768024217
40
1
40
1
40
1
40
1
10
433.57190887171737
20
-38.911186338440714
30
0
10
428.82606372054568
20
-35.183245356207927
30
0
10
420.55643193827876
20
-34.321132899989664
30
0
10
418.3419511669228
20
-34.471759183439239
30
0
0
SPLINE
5
293
100
AcDbEntity
8
0
100
AcDbSpline
70
1064
71
3
72
8
73
4
74
0
42
0.000000001
43
0.0000000001
44
0.0000000001
40
0
40
0
40
0
40
0
40
0.86506589020654756
40
0.86506589020654756
40
0.86506589020654756
40
0.86506589020654756
10
351.99167634453488
20
-91.677898885535484
30
0
10
357.35187675421088
20
-87.394557486348077
30
0
10
359.03469844135384
20
-91.240360825083684
30
0
10
363.25975933966515
20
-86.273772698891676
30
0
0
SPLINE
5
294
100
AcDbEntity
8
0
100
AcDbSpline
70
1064
71
3
72
8
73
4
74
0
42
0.000000001
43
0.0000000001
44
0.0000000001
40
0.095139062986032932
40
0.095139062986032932
40
0.095139062986032932
40
0.095139062986032932
40
1
40
1
40
1
40
1
10
366.61080122692107
20
-73.497424869571674
30
0
10
360.36444423919272
20
-78.984378978800009
30
0
10
365.50121882607067
20
-84.278635506980649
30
0
10
362.397843094596
20
-87.82590106821408
30
0
0
SPLINE
5
295
100
AcDbEntity
8
0
100
AcDbSpline
70
1064
71
3
72
8
73
4
74
0
42
0.000000001
43
0.0000000001
44
0.0000000001
40
0
40
0
40
0
40
0
40
0.8040681323247767
40
0.8040681323247767
40
0.8040681323247767
40
0.8040681323247767
10
354.00551120438547
20
-78.006053218823666
30
0
10
359.03943638880025
20
-75.230598988220606
30
0
10
361.33588158496718
20
-78.00508369885334
30
0
10
365.25479804053026
20
-74.888846615430083
30
0
0
SPLINE
5
296
100
AcDbEntity
8
0
100
AcDbSpline
70
1064
71
3
72
8
73
4
74
0
42
0.000000001
43
0.0000000001
44
0.0000000001
40
0.22253066020261678
40
0.22253066020261678
40
0.22253066020261678
40
0.22253066020261678
40
1
40
1
40
1
40
1
10
368.27215581603491
20
-62.87832113171131
30
0
10
366.2216151426627
20
-66.57449430953379
30
0
10
369.20769865551875
20
-70.481327383271179
30
0
10
366.54124893056985
20
-73.529195562128209
30
0
0
ENDSEC
0
SECTION
2
OBJECTS
0
DICTIONARY
5
C
100
AcDbDictionary
3
ACAD_GROUP
350
D
3
ACAD_MLINESTYLE
350
17
0
DICTIONARY
5
D
100
AcDbDictionary
0
DICTIONARY
5
1A
330
C
100
AcDbDictionary
0
DICTIONARY
5
17
100
AcDbDictionary
0
ENDSEC
0
EOF
