ISO-10303-21;
HEADER;
FILE_DESCRIPTION(('CATIA V5 STEP Exchange'),'2;1');

FILE_NAME('C:\\Users\\Alexander\\SkyDrive\\UniTransferKlinik\\Projekte\\FabLab\\CNC-Fr\X2\00E4\X0\se\\Projekte\\Pinne\\Pinne2.stp','2016-11-23T16:36:55+00:00',('none'),('none'),'CATIA Version 5 Release 19 SP 2 (IN-10)','CATIA V5 STEP AP203','none');

FILE_SCHEMA(('CONFIG_CONTROL_DESIGN'));

ENDSEC;
/* file written by CATIA V5R19 */
DATA;
#5=PRODUCT('Pinne','','',(#2)) ;
#1=APPLICATION_CONTEXT('configuration controlled 3D design of mechanical parts and assemblies') ;
#14=PRODUCT_DEFINITION('',' ',#6,#3) ;
#16=SECURITY_CLASSIFICATION(' ',' ',#15) ;
#15=SECURITY_CLASSIFICATION_LEVEL('unclassified') ;
#47=CARTESIAN_POINT(' ',(0.,0.,0.)) ;
#52=CARTESIAN_POINT('Axis2P3D Location',(0.,0.,0.)) ;
#57=CARTESIAN_POINT('Line Origine',(0.,0.,30.)) ;
#61=CARTESIAN_POINT('Vertex',(0.,0.,0.)) ;
#63=CARTESIAN_POINT('Vertex',(0.,0.,60.)) ;
#66=CARTESIAN_POINT('Line Origine',(30.,0.,0.)) ;
#70=CARTESIAN_POINT('Vertex',(60.,0.,0.)) ;
#73=CARTESIAN_POINT('Line Origine',(60.,0.,30.)) ;
#77=CARTESIAN_POINT('Vertex',(60.,0.,60.)) ;
#80=CARTESIAN_POINT('Line Origine',(30.,0.,60.)) ;
#92=CARTESIAN_POINT('Axis2P3D Location',(60.,0.,0.)) ;
#97=CARTESIAN_POINT('Line Origine',(60.,100.,0.)) ;
#101=CARTESIAN_POINT('Vertex',(60.,200.,0.)) ;
#104=CARTESIAN_POINT('Line Origine',(60.,200.,30.)) ;
#108=CARTESIAN_POINT('Vertex',(60.,200.,60.)) ;
#111=CARTESIAN_POINT('Line Origine',(60.,100.,60.)) ;
#123=CARTESIAN_POINT('Axis2P3D Location',(0.,200.,0.)) ;
#128=CARTESIAN_POINT('Line Origine',(0.,200.,30.)) ;
#132=CARTESIAN_POINT('Vertex',(-1.06581410364E-014,200.,0.)) ;
#134=CARTESIAN_POINT('Vertex',(0.,200.,60.)) ;
#137=CARTESIAN_POINT('Line Origine',(0.,100.,0.)) ;
#142=CARTESIAN_POINT('Line Origine',(0.,100.,60.)) ;
#154=CARTESIAN_POINT('Axis2P3D Location',(0.,0.,60.)) ;
#159=CARTESIAN_POINT('Line Origine',(30.,200.,60.)) ;
#171=CARTESIAN_POINT('Axis2P3D Location',(0.,0.,0.)) ;
#176=CARTESIAN_POINT('Line Origine',(30.,200.,0.)) ;
#189=CARTESIAN_POINT('Control Point',(58.6682964635,870.494816726,0.)) ;
#190=CARTESIAN_POINT('Control Point',(46.9346371708,736.39585338,0.)) ;
#191=CARTESIAN_POINT('Control Point',(35.2009778781,602.296890035,0.)) ;
#192=CARTESIAN_POINT('Control Point',(-1.06581410364E-014,469.222664207,0.)) ;
#193=CARTESIAN_POINT('Control Point',(-1.06581410364E-014,334.611332103,0.)) ;
#194=CARTESIAN_POINT('Control Point',(-2.01320441799E-014,200.,0.)) ;
#199=CARTESIAN_POINT('Control Point',(58.6682964635,870.494816726,12.5717778136)) ;
#200=CARTESIAN_POINT('Control Point',(46.9346371708,736.39585338,10.0574222509)) ;
#201=CARTESIAN_POINT('Control Point',(35.2009700917,602.296890476,7.54306669445)) ;
#202=CARTESIAN_POINT('Control Point',(-4.24427328523E-005,469.222306763,5.04791821266)) ;
#203=CARTESIAN_POINT('Control Point',(2.48985847583E-014,334.61115238,2.52395910712)) ;
#204=CARTESIAN_POINT('Control Point',(-1.42108547152E-014,200.,1.03028696685E-013)) ;
#205=CARTESIAN_POINT('Vertex',(58.6682964635,870.494816726,12.5717778136)) ;
#209=CARTESIAN_POINT('Control Point',(58.6682964635,870.494816726,47.4282221864)) ;
#210=CARTESIAN_POINT('Control Point',(46.9346371708,736.39585338,49.9425777491)) ;
#211=CARTESIAN_POINT('Control Point',(35.2009700917,602.296890476,52.4569333055)) ;
#212=CARTESIAN_POINT('Control Point',(-4.24427328523E-005,469.222306763,54.9520817873)) ;
#213=CARTESIAN_POINT('Control Point',(2.48985847583E-014,334.61115238,57.4760408929)) ;
#214=CARTESIAN_POINT('Control Point',(-1.42108547152E-014,200.,60.)) ;
#215=CARTESIAN_POINT('Vertex',(58.6682964635,870.494816726,47.4282221864)) ;
#218=CARTESIAN_POINT('Line Origine',(58.6682964635,870.494816726,30.)) ;
#230=CARTESIAN_POINT('Axis2P3D Location',(70.,1000.,0.)) ;
#235=CARTESIAN_POINT('Line Origine',(64.3341482317,935.247408363,13.7858889068)) ;
#239=CARTESIAN_POINT('Vertex',(70.,1000.,15.)) ;
#242=CARTESIAN_POINT('Line Origine',(64.3341482317,935.247408363,46.2141110932)) ;
#246=CARTESIAN_POINT('Vertex',(70.,1000.,45.)) ;
#249=CARTESIAN_POINT('Line Origine',(70.,1000.,30.)) ;
#261=CARTESIAN_POINT('Axis2P3D Location',(70.,1000.,0.)) ;
#266=CARTESIAN_POINT('Line Origine',(85.,1000.,45.)) ;
#270=CARTESIAN_POINT('Vertex',(100.,1000.,45.)) ;
#273=CARTESIAN_POINT('Line Origine',(100.,1000.,30.)) ;
#277=CARTESIAN_POINT('Vertex',(100.,1000.,15.)) ;
#280=CARTESIAN_POINT('Line Origine',(85.,1000.,15.)) ;
#292=CARTESIAN_POINT('Axis2P3D Location',(100.,1000.,0.)) ;
#297=CARTESIAN_POINT('Line Origine',(94.3341482317,935.247408363,46.2141110932)) ;
#301=CARTESIAN_POINT('Vertex',(88.6682964635,870.494816726,47.4282221864)) ;
#304=CARTESIAN_POINT('Line Origine',(88.6682964635,870.494816726,30.)) ;
#308=CARTESIAN_POINT('Vertex',(88.6682964635,870.494816726,12.5717778136)) ;
#311=CARTESIAN_POINT('Line Origine',(94.3341482317,935.247408363,13.7858889068)) ;
#324=CARTESIAN_POINT('Control Point',(88.6682964635,870.494816726,0.)) ;
#325=CARTESIAN_POINT('Control Point',(76.9686190242,736.784217419,0.)) ;
#326=CARTESIAN_POINT('Control Point',(65.2689415848,603.073618112,0.)) ;
#327=CARTESIAN_POINT('Control Point',(60.,468.442968387,0.)) ;
#328=CARTESIAN_POINT('Control Point',(60.,334.221484194,0.)) ;
#329=CARTESIAN_POINT('Control Point',(60.,200.,0.)) ;
#334=CARTESIAN_POINT('Control Point',(88.6682964635,870.494816726,47.4282221864)) ;
#335=CARTESIAN_POINT('Control Point',(76.9686071551,736.784081773,49.9352984668)) ;
#336=CARTESIAN_POINT('Control Point',(65.2689221167,603.073346121,52.4423747479)) ;
#337=CARTESIAN_POINT('Control Point',(60.0000053948,468.44288192,54.9666959551)) ;
#338=CARTESIAN_POINT('Control Point',(60.,334.221441155,57.4833479784)) ;
#339=CARTESIAN_POINT('Control Point',(60.,200.,60.)) ;
#342=CARTESIAN_POINT('Control Point',(88.6682964635,870.494816726,12.5717778136)) ;
#343=CARTESIAN_POINT('Control Point',(76.9686071551,736.784081773,10.0647015332)) ;
#344=CARTESIAN_POINT('Control Point',(65.2689221167,603.073346121,7.55762525209)) ;
#345=CARTESIAN_POINT('Control Point',(60.0000053948,468.44288192,5.03330404486)) ;
#346=CARTESIAN_POINT('Control Point',(60.,334.221441155,2.51665202165)) ;
#347=CARTESIAN_POINT('Control Point',(60.,200.,1.03916875105E-013)) ;
#356=CARTESIAN_POINT('Axis2P3D Location',(0.,200.,1.03028696685E-013)) ;
#370=CARTESIAN_POINT('Axis2P3D Location',(0.,200.,60.)) ;
#53=DIRECTION('Axis2P3D Direction',(0.,-1.,0.)) ;
#54=DIRECTION('Axis2P3D XDirection',(1.,0.,0.)) ;
#58=DIRECTION('Vector Direction',(0.,0.,1.)) ;
#67=DIRECTION('Vector Direction',(1.,0.,0.)) ;
#74=DIRECTION('Vector Direction',(0.,0.,1.)) ;
#81=DIRECTION('Vector Direction',(1.,0.,0.)) ;
#93=DIRECTION('Axis2P3D Direction',(1.,0.,0.)) ;
#94=DIRECTION('Axis2P3D XDirection',(0.,1.,0.)) ;
#98=DIRECTION('Vector Direction',(0.,1.,0.)) ;
#105=DIRECTION('Vector Direction',(0.,0.,1.)) ;
#112=DIRECTION('Vector Direction',(0.,1.,0.)) ;
#124=DIRECTION('Axis2P3D Direction',(-1.,0.,0.)) ;
#125=DIRECTION('Axis2P3D XDirection',(0.,-1.,0.)) ;
#129=DIRECTION('Vector Direction',(0.,0.,1.)) ;
#138=DIRECTION('Vector Direction',(0.,-1.,0.)) ;
#143=DIRECTION('Vector Direction',(0.,-1.,0.)) ;
#155=DIRECTION('Axis2P3D Direction',(0.,0.,1.)) ;
#156=DIRECTION('Axis2P3D XDirection',(1.,0.,0.)) ;
#160=DIRECTION('Vector Direction',(1.,0.,0.)) ;
#172=DIRECTION('Axis2P3D Direction',(0.,0.,1.)) ;
#173=DIRECTION('Axis2P3D XDirection',(1.,0.,0.)) ;
#177=DIRECTION('Vector Direction',(1.,0.,0.)) ;
#195=DIRECTION('Vector Direction',(0.,0.,1.)) ;
#219=DIRECTION('Vector Direction',(0.,0.,1.)) ;
#231=DIRECTION('Axis2P3D Direction',(-0.996193717496,0.0871669502809,0.)) ;
#232=DIRECTION('Axis2P3D XDirection',(-0.0871669502809,-0.996193717496,-0.)) ;
#236=DIRECTION('Vector Direction',(-0.0871517483633,-0.996019981295,-0.0186753746493)) ;
#243=DIRECTION('Vector Direction',(-0.0871517483633,-0.996019981295,0.0186753746493)) ;
#250=DIRECTION('Vector Direction',(0.,0.,1.)) ;
#262=DIRECTION('Axis2P3D Direction',(0.,-1.,0.)) ;
#263=DIRECTION('Axis2P3D XDirection',(1.,0.,0.)) ;
#267=DIRECTION('Vector Direction',(1.,0.,0.)) ;
#274=DIRECTION('Vector Direction',(0.,0.,1.)) ;
#281=DIRECTION('Vector Direction',(1.,0.,0.)) ;
#293=DIRECTION('Axis2P3D Direction',(-0.996193717496,0.0871669502809,0.)) ;
#294=DIRECTION('Axis2P3D XDirection',(-0.0871669502809,-0.996193717496,-0.)) ;
#298=DIRECTION('Vector Direction',(-0.0871517483633,-0.996019981295,0.0186753746493)) ;
#305=DIRECTION('Vector Direction',(0.,0.,1.)) ;
#312=DIRECTION('Vector Direction',(-0.0871517483633,-0.996019981295,-0.0186753746493)) ;
#330=DIRECTION('Vector Direction',(0.,0.,1.)) ;
#357=DIRECTION('Axis2P3D Direction',(0.,0.0187467049703,-0.999824265085)) ;
#358=DIRECTION('Axis2P3D XDirection',(0.,0.999824265085,0.0187467049703)) ;
#371=DIRECTION('Axis2P3D Direction',(0.,-0.0187467049703,-0.999824265085)) ;
#372=DIRECTION('Axis2P3D XDirection',(0.,0.999824265085,-0.0187467049703)) ;
#48=AXIS2_PLACEMENT_3D(' ',#47,$,$) ;
#55=AXIS2_PLACEMENT_3D('Plane Axis2P3D',#52,#53,#54) ;
#95=AXIS2_PLACEMENT_3D('Plane Axis2P3D',#92,#93,#94) ;
#126=AXIS2_PLACEMENT_3D('Plane Axis2P3D',#123,#124,#125) ;
#157=AXIS2_PLACEMENT_3D('Plane Axis2P3D',#154,#155,#156) ;
#174=AXIS2_PLACEMENT_3D('Plane Axis2P3D',#171,#172,#173) ;
#233=AXIS2_PLACEMENT_3D('Plane Axis2P3D',#230,#231,#232) ;
#264=AXIS2_PLACEMENT_3D('Plane Axis2P3D',#261,#262,#263) ;
#295=AXIS2_PLACEMENT_3D('Plane Axis2P3D',#292,#293,#294) ;
#359=AXIS2_PLACEMENT_3D('Plane Axis2P3D',#356,#357,#358) ;
#373=AXIS2_PLACEMENT_3D('Plane Axis2P3D',#370,#371,#372) ;
#40=PRODUCT_DEFINITION_SHAPE(' ',' ',#14) ;
#31=APPROVAL_PERSON_ORGANIZATION(#25,#21,#19) ;
#25=PERSON_AND_ORGANIZATION(#22,#23) ;
#22=PERSON(' ',' ',' ',$,$,$) ;
#23=ORGANIZATION(' ',' ',' ') ;
#21=APPROVAL(#20,' ') ;
#20=APPROVAL_STATUS('not_yet_approved') ;
#19=APPROVAL_ROLE('APPROVER') ;
#13=DATE_AND_TIME(#11,#12) ;
#12=LOCAL_TIME(17,36,55.,#10) ;
#10=COORDINATED_UNIVERSAL_TIME_OFFSET(0,0,.AHEAD.) ;
#86=ORIENTED_EDGE('',*,*,#65,.F.) ;
#87=ORIENTED_EDGE('',*,*,#72,.T.) ;
#88=ORIENTED_EDGE('',*,*,#79,.T.) ;
#89=ORIENTED_EDGE('',*,*,#84,.F.) ;
#117=ORIENTED_EDGE('',*,*,#79,.F.) ;
#118=ORIENTED_EDGE('',*,*,#103,.T.) ;
#119=ORIENTED_EDGE('',*,*,#110,.T.) ;
#120=ORIENTED_EDGE('',*,*,#115,.F.) ;
#148=ORIENTED_EDGE('',*,*,#136,.F.) ;
#149=ORIENTED_EDGE('',*,*,#141,.T.) ;
#150=ORIENTED_EDGE('',*,*,#65,.T.) ;
#151=ORIENTED_EDGE('',*,*,#146,.F.) ;
#165=ORIENTED_EDGE('',*,*,#146,.T.) ;
#166=ORIENTED_EDGE('',*,*,#84,.T.) ;
#167=ORIENTED_EDGE('',*,*,#115,.T.) ;
#168=ORIENTED_EDGE('',*,*,#163,.F.) ;
#182=ORIENTED_EDGE('',*,*,#180,.T.) ;
#183=ORIENTED_EDGE('',*,*,#103,.F.) ;
#184=ORIENTED_EDGE('',*,*,#72,.F.) ;
#185=ORIENTED_EDGE('',*,*,#141,.F.) ;
#224=ORIENTED_EDGE('',*,*,#207,.T.) ;
#225=ORIENTED_EDGE('',*,*,#136,.T.) ;
#226=ORIENTED_EDGE('',*,*,#217,.F.) ;
#227=ORIENTED_EDGE('',*,*,#222,.F.) ;
#255=ORIENTED_EDGE('',*,*,#241,.T.) ;
#256=ORIENTED_EDGE('',*,*,#222,.T.) ;
#257=ORIENTED_EDGE('',*,*,#248,.F.) ;
#258=ORIENTED_EDGE('',*,*,#253,.F.) ;
#286=ORIENTED_EDGE('',*,*,#253,.T.) ;
#287=ORIENTED_EDGE('',*,*,#272,.T.) ;
#288=ORIENTED_EDGE('',*,*,#279,.F.) ;
#289=ORIENTED_EDGE('',*,*,#284,.F.) ;
#317=ORIENTED_EDGE('',*,*,#279,.T.) ;
#318=ORIENTED_EDGE('',*,*,#303,.T.) ;
#319=ORIENTED_EDGE('',*,*,#310,.F.) ;
#320=ORIENTED_EDGE('',*,*,#315,.F.) ;
#350=ORIENTED_EDGE('',*,*,#340,.T.) ;
#351=ORIENTED_EDGE('',*,*,#110,.F.) ;
#352=ORIENTED_EDGE('',*,*,#348,.F.) ;
#353=ORIENTED_EDGE('',*,*,#310,.T.) ;
#362=ORIENTED_EDGE('',*,*,#180,.F.) ;
#363=ORIENTED_EDGE('',*,*,#207,.F.) ;
#364=ORIENTED_EDGE('',*,*,#241,.F.) ;
#365=ORIENTED_EDGE('',*,*,#284,.T.) ;
#366=ORIENTED_EDGE('',*,*,#315,.T.) ;
#367=ORIENTED_EDGE('',*,*,#348,.T.) ;
#376=ORIENTED_EDGE('',*,*,#163,.T.) ;
#377=ORIENTED_EDGE('',*,*,#340,.F.) ;
#378=ORIENTED_EDGE('',*,*,#303,.F.) ;
#379=ORIENTED_EDGE('',*,*,#272,.F.) ;
#380=ORIENTED_EDGE('',*,*,#248,.T.) ;
#381=ORIENTED_EDGE('',*,*,#217,.T.) ;
#51=CLOSED_SHELL('Closed Shell',(#91,#122,#153,#170,#187,#229,#260,#291,#322,#355,#369,#383)) ;
#59=VECTOR('Line Direction',#58,1.) ;
#68=VECTOR('Line Direction',#67,1.) ;
#75=VECTOR('Line Direction',#74,1.) ;
#82=VECTOR('Line Direction',#81,1.) ;
#99=VECTOR('Line Direction',#98,1.) ;
#106=VECTOR('Line Direction',#105,1.) ;
#113=VECTOR('Line Direction',#112,1.) ;
#130=VECTOR('Line Direction',#129,1.) ;
#139=VECTOR('Line Direction',#138,1.) ;
#144=VECTOR('Line Direction',#143,1.) ;
#161=VECTOR('Line Direction',#160,1.) ;
#178=VECTOR('Line Direction',#177,1.) ;
#196=VECTOR('Extrusion Surface Vector',#195,1.) ;
#220=VECTOR('Line Direction',#219,1.) ;
#237=VECTOR('Line Direction',#236,1.) ;
#244=VECTOR('Line Direction',#243,1.) ;
#251=VECTOR('Line Direction',#250,1.) ;
#268=VECTOR('Line Direction',#267,1.) ;
#275=VECTOR('Line Direction',#274,1.) ;
#282=VECTOR('Line Direction',#281,1.) ;
#299=VECTOR('Line Direction',#298,1.) ;
#306=VECTOR('Line Direction',#305,1.) ;
#313=VECTOR('Line Direction',#312,1.) ;
#331=VECTOR('Extrusion Surface Vector',#330,1.) ;
#385=ADVANCED_BREP_SHAPE_REPRESENTATION('NONE',(#384),#46) ;
#49=SHAPE_REPRESENTATION(' ',(#48),#46) ;
#91=ADVANCED_FACE('Hauptk\X2\00F6\X0\rper',(#90),#56,.T.) ;
#122=ADVANCED_FACE('Hauptk\X2\00F6\X0\rper',(#121),#96,.T.) ;
#153=ADVANCED_FACE('Hauptk\X2\00F6\X0\rper',(#152),#127,.T.) ;
#170=ADVANCED_FACE('Hauptk\X2\00F6\X0\rper',(#169),#158,.T.) ;
#187=ADVANCED_FACE('Hauptk\X2\00F6\X0\rper',(#186),#175,.F.) ;
#229=ADVANCED_FACE('Hauptk\X2\00F6\X0\rper',(#228),#197,.T.) ;
#260=ADVANCED_FACE('Hauptk\X2\00F6\X0\rper',(#259),#234,.T.) ;
#291=ADVANCED_FACE('Hauptk\X2\00F6\X0\rper',(#290),#265,.F.) ;
#322=ADVANCED_FACE('Hauptk\X2\00F6\X0\rper',(#321),#296,.F.) ;
#355=ADVANCED_FACE('Hauptk\X2\00F6\X0\rper',(#354),#332,.F.) ;
#369=ADVANCED_FACE('Hauptk\X2\00F6\X0\rper',(#368),#360,.T.) ;
#383=ADVANCED_FACE('Hauptk\X2\00F6\X0\rper',(#382),#374,.F.) ;
#4=APPLICATION_PROTOCOL_DEFINITION('international standard','config_control_design',1994,#1) ;
#32=APPROVAL_DATE_TIME(#13,#21) ;
#188=B_SPLINE_CURVE_WITH_KNOTS('',5,(#189,#190,#191,#192,#193,#194),.UNSPECIFIED.,.F.,.U.,(6,6),(0.,673.056660517),.UNSPECIFIED.) ;
#198=B_SPLINE_CURVE_WITH_KNOTS('',5,(#199,#200,#201,#202,#203,#204),.UNSPECIFIED.,.F.,.U.,(6,6),(0.,952.011888437),.UNSPECIFIED.) ;
#208=B_SPLINE_CURVE_WITH_KNOTS('',5,(#209,#210,#211,#212,#213,#214),.UNSPECIFIED.,.F.,.U.,(6,6),(0.,952.011888437),.UNSPECIFIED.) ;
#323=B_SPLINE_CURVE_WITH_KNOTS('',5,(#324,#325,#326,#327,#328,#329),.UNSPECIFIED.,.F.,.U.,(6,6),(0.,671.107420968),.UNSPECIFIED.) ;
#333=B_SPLINE_CURVE_WITH_KNOTS('',5,(#334,#335,#336,#337,#338,#339),.UNSPECIFIED.,.F.,.U.,(6,6),(0.,949.255729585),.UNSPECIFIED.) ;
#341=B_SPLINE_CURVE_WITH_KNOTS('',5,(#342,#343,#344,#345,#346,#347),.UNSPECIFIED.,.F.,.U.,(6,6),(0.,949.255729585),.UNSPECIFIED.) ;
#384=MANIFOLD_SOLID_BREP('Hauptk\X2\00F6\X0\rper',#51) ;
#11=CALENDAR_DATE(2016,23,11) ;
#30=CC_DESIGN_APPROVAL(#21,(#16,#6,#14)) ;
#18=CC_DESIGN_DATE_AND_TIME_ASSIGNMENT(#13,#17,(#16)) ;
#29=CC_DESIGN_DATE_AND_TIME_ASSIGNMENT(#13,#28,(#14)) ;
#17=DATE_TIME_ROLE('classification_date') ;
#28=DATE_TIME_ROLE('creation_date') ;
#27=CC_DESIGN_PERSON_AND_ORGANIZATION_ASSIGNMENT(#25,#26,(#16)) ;
#33=CC_DESIGN_PERSON_AND_ORGANIZATION_ASSIGNMENT(#25,#34,(#6)) ;
#35=CC_DESIGN_PERSON_AND_ORGANIZATION_ASSIGNMENT(#25,#36,(#6,#14)) ;
#37=CC_DESIGN_PERSON_AND_ORGANIZATION_ASSIGNMENT(#25,#38,(#5)) ;
#26=PERSON_AND_ORGANIZATION_ROLE('classification_officer') ;
#34=PERSON_AND_ORGANIZATION_ROLE('design_supplier') ;
#36=PERSON_AND_ORGANIZATION_ROLE('creator') ;
#38=PERSON_AND_ORGANIZATION_ROLE('design_owner') ;
#39=CC_DESIGN_SECURITY_CLASSIFICATION(#16,(#6)) ;
#386=SHAPE_REPRESENTATION_RELATIONSHIP(' ',' ',#49,#385) ;
#3=DESIGN_CONTEXT(' ',#1,'design') ;
#65=EDGE_CURVE('',#62,#64,#60,.T.) ;
#72=EDGE_CURVE('',#62,#71,#69,.T.) ;
#79=EDGE_CURVE('',#71,#78,#76,.T.) ;
#84=EDGE_CURVE('',#64,#78,#83,.T.) ;
#103=EDGE_CURVE('',#71,#102,#100,.T.) ;
#110=EDGE_CURVE('',#102,#109,#107,.T.) ;
#115=EDGE_CURVE('',#78,#109,#114,.T.) ;
#136=EDGE_CURVE('',#133,#135,#131,.T.) ;
#141=EDGE_CURVE('',#133,#62,#140,.T.) ;
#146=EDGE_CURVE('',#135,#64,#145,.T.) ;
#163=EDGE_CURVE('',#135,#109,#162,.T.) ;
#180=EDGE_CURVE('',#133,#102,#179,.T.) ;
#207=EDGE_CURVE('',#206,#133,#198,.T.) ;
#217=EDGE_CURVE('',#216,#135,#208,.T.) ;
#222=EDGE_CURVE('',#206,#216,#221,.T.) ;
#241=EDGE_CURVE('',#240,#206,#238,.T.) ;
#248=EDGE_CURVE('',#247,#216,#245,.T.) ;
#253=EDGE_CURVE('',#240,#247,#252,.T.) ;
#272=EDGE_CURVE('',#247,#271,#269,.T.) ;
#279=EDGE_CURVE('',#278,#271,#276,.T.) ;
#284=EDGE_CURVE('',#240,#278,#283,.T.) ;
#303=EDGE_CURVE('',#271,#302,#300,.T.) ;
#310=EDGE_CURVE('',#309,#302,#307,.T.) ;
#315=EDGE_CURVE('',#278,#309,#314,.T.) ;
#340=EDGE_CURVE('',#302,#109,#333,.T.) ;
#348=EDGE_CURVE('',#309,#102,#341,.T.) ;
#85=EDGE_LOOP('',(#86,#87,#88,#89)) ;
#116=EDGE_LOOP('',(#117,#118,#119,#120)) ;
#147=EDGE_LOOP('',(#148,#149,#150,#151)) ;
#164=EDGE_LOOP('',(#165,#166,#167,#168)) ;
#181=EDGE_LOOP('',(#182,#183,#184,#185)) ;
#223=EDGE_LOOP('',(#224,#225,#226,#227)) ;
#254=EDGE_LOOP('',(#255,#256,#257,#258)) ;
#285=EDGE_LOOP('',(#286,#287,#288,#289)) ;
#316=EDGE_LOOP('',(#317,#318,#319,#320)) ;
#349=EDGE_LOOP('',(#350,#351,#352,#353)) ;
#361=EDGE_LOOP('',(#362,#363,#364,#365,#366,#367)) ;
#375=EDGE_LOOP('',(#376,#377,#378,#379,#380,#381)) ;
#90=FACE_OUTER_BOUND('',#85,.T.) ;
#121=FACE_OUTER_BOUND('',#116,.T.) ;
#152=FACE_OUTER_BOUND('',#147,.T.) ;
#169=FACE_OUTER_BOUND('',#164,.T.) ;
#186=FACE_OUTER_BOUND('',#181,.T.) ;
#228=FACE_OUTER_BOUND('',#223,.T.) ;
#259=FACE_OUTER_BOUND('',#254,.T.) ;
#290=FACE_OUTER_BOUND('',#285,.T.) ;
#321=FACE_OUTER_BOUND('',#316,.T.) ;
#354=FACE_OUTER_BOUND('',#349,.T.) ;
#368=FACE_OUTER_BOUND('',#361,.T.) ;
#382=FACE_OUTER_BOUND('',#375,.T.) ;
#45=UNCERTAINTY_MEASURE_WITH_UNIT(LENGTH_MEASURE(0.005),#41,'distance_accuracy_value','CONFUSED CURVE UNCERTAINTY') ;
#60=LINE('Line',#57,#59) ;
#69=LINE('Line',#66,#68) ;
#76=LINE('Line',#73,#75) ;
#83=LINE('Line',#80,#82) ;
#100=LINE('Line',#97,#99) ;
#107=LINE('Line',#104,#106) ;
#114=LINE('Line',#111,#113) ;
#131=LINE('Line',#128,#130) ;
#140=LINE('Line',#137,#139) ;
#145=LINE('Line',#142,#144) ;
#162=LINE('Line',#159,#161) ;
#179=LINE('Line',#176,#178) ;
#221=LINE('Line',#218,#220) ;
#238=LINE('Line',#235,#237) ;
#245=LINE('Line',#242,#244) ;
#252=LINE('Line',#249,#251) ;
#269=LINE('Line',#266,#268) ;
#276=LINE('Line',#273,#275) ;
#283=LINE('Line',#280,#282) ;
#300=LINE('Line',#297,#299) ;
#307=LINE('Line',#304,#306) ;
#314=LINE('Line',#311,#313) ;
#2=MECHANICAL_CONTEXT(' ',#1,'mechanical') ;
#24=PERSONAL_ADDRESS(' ',' ',' ',' ',' ',' ',' ',' ',' ',' ',' ',' ',(#22),' ') ;
#56=PLANE('Plane',#55) ;
#96=PLANE('Plane',#95) ;
#127=PLANE('Plane',#126) ;
#158=PLANE('Plane',#157) ;
#175=PLANE('Plane',#174) ;
#234=PLANE('Plane',#233) ;
#265=PLANE('Plane',#264) ;
#296=PLANE('Plane',#295) ;
#360=PLANE('Plane',#359) ;
#374=PLANE('Plane',#373) ;
#43=PLANE_ANGLE_MEASURE_WITH_UNIT(PLANE_ANGLE_MEASURE(0.0174532925199),#42) ;
#7=PRODUCT_CATEGORY('part',$) ;
#9=PRODUCT_CATEGORY_RELATIONSHIP(' ',' ',#7,#8) ;
#6=PRODUCT_DEFINITION_FORMATION_WITH_SPECIFIED_SOURCE('',' ',#5,.NOT_KNOWN.) ;
#8=PRODUCT_RELATED_PRODUCT_CATEGORY('detail',$,(#5)) ;
#50=SHAPE_DEFINITION_REPRESENTATION(#40,#49) ;
#197=SURFACE_OF_LINEAR_EXTRUSION('generated tabulated cylinder',#188,#196) ;
#332=SURFACE_OF_LINEAR_EXTRUSION('generated tabulated cylinder',#323,#331) ;
#62=VERTEX_POINT('',#61) ;
#64=VERTEX_POINT('',#63) ;
#71=VERTEX_POINT('',#70) ;
#78=VERTEX_POINT('',#77) ;
#102=VERTEX_POINT('',#101) ;
#109=VERTEX_POINT('',#108) ;
#133=VERTEX_POINT('',#132) ;
#135=VERTEX_POINT('',#134) ;
#206=VERTEX_POINT('',#205) ;
#216=VERTEX_POINT('',#215) ;
#240=VERTEX_POINT('',#239) ;
#247=VERTEX_POINT('',#246) ;
#271=VERTEX_POINT('',#270) ;
#278=VERTEX_POINT('',#277) ;
#302=VERTEX_POINT('',#301) ;
#309=VERTEX_POINT('',#308) ;
#41=(LENGTH_UNIT()NAMED_UNIT(*)SI_UNIT(.MILLI.,.METRE.)) ;
#42=(NAMED_UNIT(*)PLANE_ANGLE_UNIT()SI_UNIT($,.RADIAN.)) ;
#44=(NAMED_UNIT(*)SI_UNIT($,.STERADIAN.)SOLID_ANGLE_UNIT()) ;
#46=(GEOMETRIC_REPRESENTATION_CONTEXT(3)GLOBAL_UNCERTAINTY_ASSIGNED_CONTEXT((#45))GLOBAL_UNIT_ASSIGNED_CONTEXT((#41,#42,#44))REPRESENTATION_CONTEXT(' ',' ')) ;
ENDSEC;
END-ISO-10303-21;
