0
SECTION
2
HEADER
9
$INSUNITS
70
4
9
$ACADVER
1
AC1014
9
$HANDSEED
5
FFFF
0
ENDSEC
0
SECTION
2
TABLES
0
TABLE
2
VPORT
5
8
100
AcDbSymbolTable
0
ENDTAB
0
TABLE
2
LTYPE
5
5
100
AcDbSymbolTable
0
LTYPE
5
14
100
AcDbSymbolTableRecord
100
AcDbLinetypeTableRecord
2
BYBLOCK
70
0
0
LTYPE
5
15
100
AcDbSymbolTableRecord
100
AcDbLinetypeTableRecord
2
BYLAYER
70
0
0
ENDTAB
0
TABLE
2
LAYER
5
2
100
AcDbSymbolTable
70
2
0
LAYER
5
50
100
AcDbSymbolTableRecord
100
AcDbLayerTableRecord
2
0
70
0
6
CONTINUOUS
0
ENDTAB
0
TABLE
2
STYLE
5
3
100
AcDbSymbolTable
70
1
0
STYLE
5
11
100
AcDbSymbolTableRecord
100
AcDbTextStyleTableRecord
2
STANDARD
70
0
0
ENDTAB
0
TABLE
2
VIEW
5
6
100
AcDbSymbolTable
70
0
0
ENDTAB
0
TABLE
2
UCS
5
7
100
AcDbSymbolTable
70
0
0
ENDTAB
0
TABLE
2
APPID
5
9
100
AcDbSymbolTable
70
2
0
APPID
5
12
100
AcDbSymbolTableRecord
100
AcDbRegAppTableRecord
2
ACAD
70
0
0
ENDTAB
0
TABLE
2
DIMSTYLE
5
A
100
AcDbSymbolTable
70
1
0
ENDTAB
0
TABLE
2
BLOCK_RECORD
5
1
100
AcDbSymbolTable
70
1
0
BLOCK_RECORD
5
1F
100
AcDbSymbolTableRecord
100
AcDbBlockTableRecord
2
*MODEL_SPACE
0
BLOCK_RECORD
5
1B
100
AcDbSymbolTableRecord
100
AcDbBlockTableRecord
2
*PAPER_SPACE
0
ENDTAB
0
ENDSEC
0
SECTION
2
BLOCKS
0
BLOCK
5
20
100
AcDbEntity
100
AcDbBlockBegin
2
*MODEL_SPACE
0
ENDBLK
5
21
100
AcDbEntity
100
AcDbBlockEnd
0
BLOCK
5
1C
100
AcDbEntity
100
AcDbBlockBegin
2
*PAPER_SPACE
0
ENDBLK
5
1D
100
AcDbEntity
100
AcDbBlockEnd
0
ENDSEC
0
SECTION
2
ENTITIES
0
LWPOLYLINE
5
100
100
AcDbEntity
8
0
100
AcDbPolyline
90
4
70
1
43
0.0
10
500
20
0
10
0
20
0
10
0
20
-30
10
500
20
-30
0
LWPOLYLINE
5
101
100
AcDbEntity
8
0
100
AcDbPolyline
90
4
70
1
43
0.0
10
500
20
30
10
0
20
30
10
0
20
0
10
500
20
0
0
LWPOLYLINE
5
102
100
AcDbEntity
8
0
100
AcDbPolyline
90
4
70
1
43
0.0
10
500
20
60
10
0
20
60
10
0
20
30
10
500
20
30
0
LWPOLYLINE
5
103
100
AcDbEntity
8
0
100
AcDbPolyline
90
4
70
1
43
0.0
10
500
20
90
10
0
20
90
10
0
20
60
10
500
20
60
0
LWPOLYLINE
5
104
100
AcDbEntity
8
0
100
AcDbPolyline
90
4
70
1
43
0.0
10
500
20
120
10
0
20
120
10
0
20
90
10
500
20
90
0
LWPOLYLINE
5
105
100
AcDbEntity
8
0
100
AcDbPolyline
90
4
70
1
43
0.0
10
500
20
150
10
0
20
150
10
0
20
120
10
500
20
120
0
LWPOLYLINE
5
106
100
AcDbEntity
8
0
100
AcDbPolyline
90
4
70
1
43
0.0
10
500
20
180
10
0
20
180
10
0
20
150
10
500
20
150
0
LWPOLYLINE
5
107
100
AcDbEntity
8
0
100
AcDbPolyline
90
4
70
1
43
0.0
10
500
20
210
10
0
20
210
10
0
20
180
10
500
20
180
0
LWPOLYLINE
5
108
100
AcDbEntity
8
0
100
AcDbPolyline
90
4
70
1
43
0.0
10
500
20
240
10
0
20
240
10
0
20
210
10
500
20
210
0
LWPOLYLINE
5
109
100
AcDbEntity
8
0
100
AcDbPolyline
90
4
70
1
43
0.0
10
500
20
270
10
0
20
270
10
0
20
240
10
500
20
240
0
LWPOLYLINE
5
110
100
AcDbEntity
8
0
100
AcDbPolyline
90
4
70
1
43
0.0
10
500
20
300
10
0
20
300
10
0
20
270
10
500
20
270
0
LWPOLYLINE
5
111
100
AcDbEntity
8
0
100
AcDbPolyline
90
4
70
1
43
0.0
10
500
20
330
10
0
20
330
10
0
20
300
10
500
20
300
0
LWPOLYLINE
5
112
100
AcDbEntity
8
0
100
AcDbPolyline
90
4
70
1
43
0.0
10
500
20
360
10
0
20
360
10
0
20
330
10
500
20
330
0
LWPOLYLINE
5
113
100
AcDbEntity
8
0
100
AcDbPolyline
90
4
70
1
43
0.0
10
500
20
390
10
0
20
390
10
0
20
360
10
500
20
360
0
LWPOLYLINE
5
114
100
AcDbEntity
8
0
100
AcDbPolyline
90
4
70
1
43
0.0
10
500
20
420
10
0
20
420
10
0
20
390
10
500
20
390
0
LINE
5
115
100
AcDbEntity
8
0
100
AcDbLine
10
0
20
450
30
0
11
500
21
450
31
0
0
LINE
5
116
100
AcDbEntity
8
0
100
AcDbLine
10
500
20
420
30
0
11
0
21
420
31
0
0
LINE
5
117
100
AcDbEntity
8
0
100
AcDbLine
10
0
20
420
30
0
11
0
21
450
31
0
0
LINE
5
118
100
AcDbEntity
8
0
100
AcDbLine
10
500
20
450
30
0
11
500
21
420
31
0
0
LINE
5
119
100
AcDbEntity
8
0
100
AcDbLine
10
0
20
450
30
0
11
3.0000000000000004
21
450
31
0
0
LINE
5
120
100
AcDbEntity
8
0
100
AcDbLine
10
3.0000000000000004
20
450
30
0
11
3.0000000000000004
21
435
31
0
0
LINE
5
121
100
AcDbEntity
8
0
100
AcDbLine
10
3.0000000000000004
20
435
30
0
11
0
21
435
31
0
0
LINE
5
122
100
AcDbEntity
8
0
100
AcDbLine
10
0
20
435
30
0
11
0
21
450
31
0
0
LWPOLYLINE
5
123
100
AcDbEntity
8
0
100
AcDbPolyline
90
4
70
1
43
0.0
10
36.133300000000006
20
450
10
33.133299999999998
20
450
10
33.133299999999998
20
435
10
36.133300000000006
20
435
0
LWPOLYLINE
5
124
100
AcDbEntity
8
0
100
AcDbPolyline
90
4
70
1
43
0.0
10
69.266599999999997
20
450
10
66.266599999999997
20
450
10
66.266599999999997
20
435
10
69.266599999999997
20
435
0
LWPOLYLINE
5
125
100
AcDbEntity
8
0
100
AcDbPolyline
90
4
70
1
43
0.0
10
102.3999
20
450
10
99.399900000000002
20
450
10
99.399900000000002
20
435
10
102.3999
20
435
0
LWPOLYLINE
5
126
100
AcDbEntity
8
0
100
AcDbPolyline
90
4
70
1
43
0.0
10
135.53320000000002
20
450
10
132.53319999999999
20
450
10
132.53319999999999
20
435
10
135.53320000000002
20
435
0
LWPOLYLINE
5
127
100
AcDbEntity
8
0
100
AcDbPolyline
90
4
70
1
43
0.0
10
168.66649999999998
20
450
10
165.66649999999998
20
450
10
165.66649999999998
20
435
10
168.66649999999998
20
435
0
LWPOLYLINE
5
128
100
AcDbEntity
8
0
100
AcDbPolyline
90
4
70
1
43
0.0
10
201.7998
20
450
10
198.7998
20
450
10
198.7998
20
435
10
201.7998
20
435
0
LWPOLYLINE
5
129
100
AcDbEntity
8
0
100
AcDbPolyline
90
4
70
1
43
0.0
10
234.93310000000002
20
450
10
231.9331
20
450
10
231.9331
20
435
10
234.93310000000002
20
435
0
LWPOLYLINE
5
130
100
AcDbEntity
8
0
100
AcDbPolyline
90
4
70
1
43
0.0
10
268.06640000000004
20
450
10
265.06639999999999
20
450
10
265.06639999999999
20
435
10
268.06640000000004
20
435
0
LWPOLYLINE
5
131
100
AcDbEntity
8
0
100
AcDbPolyline
90
4
70
1
43
0.0
10
301.19970000000001
20
450
10
298.19970000000001
20
450
10
298.19970000000001
20
435
10
301.19970000000001
20
435
0
LWPOLYLINE
5
132
100
AcDbEntity
8
0
100
AcDbPolyline
90
4
70
1
43
0.0
10
334.33299999999997
20
450
10
331.33299999999997
20
450
10
331.33299999999997
20
435
10
334.33299999999997
20
435
0
LWPOLYLINE
5
133
100
AcDbEntity
8
0
100
AcDbPolyline
90
4
70
1
43
0.0
10
367.46629999999993
20
450
10
364.46629999999999
20
450
10
364.46629999999999
20
435
10
367.46629999999993
20
435
0
LWPOLYLINE
5
134
100
AcDbEntity
8
0
100
AcDbPolyline
90
4
70
1
43
0.0
10
400.59959999999995
20
450
10
397.59960000000001
20
450
10
397.59960000000001
20
435
10
400.59959999999995
20
435
0
LWPOLYLINE
5
135
100
AcDbEntity
8
0
100
AcDbPolyline
90
4
70
1
43
0.0
10
433.73289999999997
20
450
10
430.73289999999997
20
450
10
430.73289999999997
20
435
10
433.73289999999997
20
435
0
LWPOLYLINE
5
136
100
AcDbEntity
8
0
100
AcDbPolyline
90
4
70
1
43
0.0
10
466.86619999999999
20
450
10
463.86619999999999
20
450
10
463.86619999999999
20
435
10
466.86619999999999
20
435
0
LWPOLYLINE
5
137
100
AcDbEntity
8
0
100
AcDbPolyline
90
4
70
1
43
0.0
10
499.99950000000001
20
450
10
496.99950000000001
20
450
10
496.99950000000001
20
435
10
499.99950000000001
20
435
0
LWPOLYLINE
5
138
100
AcDbEntity
8
0
100
AcDbPolyline
90
4
70
1
43
0.0
10
3.0000000000000004
20
420
10
0
20
420
10
0
20
405
10
3.0000000000000004
20
405
0
LWPOLYLINE
5
139
100
AcDbEntity
8
0
100
AcDbPolyline
90
4
70
1
43
0.0
10
36.133300000000006
20
420
10
33.133299999999998
20
420
10
33.133299999999998
20
405
10
36.133300000000006
20
405
0
LWPOLYLINE
5
140
100
AcDbEntity
8
0
100
AcDbPolyline
90
4
70
1
43
0.0
10
69.266599999999997
20
420
10
66.266599999999997
20
420
10
66.266599999999997
20
405
10
69.266599999999997
20
405
0
LWPOLYLINE
5
141
100
AcDbEntity
8
0
100
AcDbPolyline
90
4
70
1
43
0.0
10
102.3999
20
420
10
99.399900000000002
20
420
10
99.399900000000002
20
405
10
102.3999
20
405
0
LWPOLYLINE
5
142
100
AcDbEntity
8
0
100
AcDbPolyline
90
4
70
1
43
0.0
10
135.53320000000002
20
420
10
132.53319999999999
20
420
10
132.53319999999999
20
405
10
135.53320000000002
20
405
0
LWPOLYLINE
5
143
100
AcDbEntity
8
0
100
AcDbPolyline
90
4
70
1
43
0.0
10
168.66649999999998
20
420
10
165.66649999999998
20
420
10
165.66649999999998
20
405
10
168.66649999999998
20
405
0
LWPOLYLINE
5
144
100
AcDbEntity
8
0
100
AcDbPolyline
90
4
70
1
43
0.0
10
201.7998
20
420
10
198.7998
20
420
10
198.7998
20
405
10
201.7998
20
405
0
LWPOLYLINE
5
145
100
AcDbEntity
8
0
100
AcDbPolyline
90
4
70
1
43
0.0
10
234.93310000000002
20
420
10
231.9331
20
420
10
231.9331
20
405
10
234.93310000000002
20
405
0
LWPOLYLINE
5
146
100
AcDbEntity
8
0
100
AcDbPolyline
90
4
70
1
43
0.0
10
268.06640000000004
20
420
10
265.06639999999999
20
420
10
265.06639999999999
20
405
10
268.06640000000004
20
405
0
LWPOLYLINE
5
147
100
AcDbEntity
8
0
100
AcDbPolyline
90
4
70
1
43
0.0
10
301.19970000000001
20
420
10
298.19970000000001
20
420
10
298.19970000000001
20
405
10
301.19970000000001
20
405
0
LWPOLYLINE
5
148
100
AcDbEntity
8
0
100
AcDbPolyline
90
4
70
1
43
0.0
10
334.33299999999997
20
420
10
331.33299999999997
20
420
10
331.33299999999997
20
405
10
334.33299999999997
20
405
0
LWPOLYLINE
5
149
100
AcDbEntity
8
0
100
AcDbPolyline
90
4
70
1
43
0.0
10
367.46629999999993
20
420
10
364.46629999999999
20
420
10
364.46629999999999
20
405
10
367.46629999999993
20
405
0
LWPOLYLINE
5
150
100
AcDbEntity
8
0
100
AcDbPolyline
90
4
70
1
43
0.0
10
400.59959999999995
20
420
10
397.59960000000001
20
420
10
397.59960000000001
20
405
10
400.59959999999995
20
405
0
LWPOLYLINE
5
151
100
AcDbEntity
8
0
100
AcDbPolyline
90
4
70
1
43
0.0
10
433.73289999999997
20
420
10
430.73289999999997
20
420
10
430.73289999999997
20
405
10
433.73289999999997
20
405
0
LWPOLYLINE
5
152
100
AcDbEntity
8
0
100
AcDbPolyline
90
4
70
1
43
0.0
10
466.86619999999999
20
420
10
463.86619999999999
20
420
10
463.86619999999999
20
405
10
466.86619999999999
20
405
0
LWPOLYLINE
5
153
100
AcDbEntity
8
0
100
AcDbPolyline
90
4
70
1
43
0.0
10
499.99950000000001
20
420
10
496.99950000000001
20
420
10
496.99950000000001
20
405
10
499.99950000000001
20
405
0
LWPOLYLINE
5
154
100
AcDbEntity
8
0
100
AcDbPolyline
90
4
70
1
43
0.0
10
3.0000000000000004
20
390
10
0
20
390
10
0
20
375
10
3.0000000000000004
20
375
0
LWPOLYLINE
5
155
100
AcDbEntity
8
0
100
AcDbPolyline
90
4
70
1
43
0.0
10
36.133300000000006
20
390
10
33.133299999999998
20
390
10
33.133299999999998
20
375
10
36.133300000000006
20
375
0
LWPOLYLINE
5
156
100
AcDbEntity
8
0
100
AcDbPolyline
90
4
70
1
43
0.0
10
69.266599999999997
20
390
10
66.266599999999997
20
390
10
66.266599999999997
20
375
10
69.266599999999997
20
375
0
LWPOLYLINE
5
157
100
AcDbEntity
8
0
100
AcDbPolyline
90
4
70
1
43
0.0
10
102.3999
20
390
10
99.399900000000002
20
390
10
99.399900000000002
20
375
10
102.3999
20
375
0
LWPOLYLINE
5
158
100
AcDbEntity
8
0
100
AcDbPolyline
90
4
70
1
43
0.0
10
135.53320000000002
20
390
10
132.53319999999999
20
390
10
132.53319999999999
20
375
10
135.53320000000002
20
375
0
LWPOLYLINE
5
159
100
AcDbEntity
8
0
100
AcDbPolyline
90
4
70
1
43
0.0
10
168.66649999999998
20
390
10
165.66649999999998
20
390
10
165.66649999999998
20
375
10
168.66649999999998
20
375
0
LWPOLYLINE
5
160
100
AcDbEntity
8
0
100
AcDbPolyline
90
4
70
1
43
0.0
10
201.7998
20
390
10
198.7998
20
390
10
198.7998
20
375
10
201.7998
20
375
0
LWPOLYLINE
5
161
100
AcDbEntity
8
0
100
AcDbPolyline
90
4
70
1
43
0.0
10
234.93310000000002
20
390
10
231.9331
20
390
10
231.9331
20
375
10
234.93310000000002
20
375
0
LWPOLYLINE
5
162
100
AcDbEntity
8
0
100
AcDbPolyline
90
4
70
1
43
0.0
10
268.06640000000004
20
390
10
265.06639999999999
20
390
10
265.06639999999999
20
375
10
268.06640000000004
20
375
0
LWPOLYLINE
5
163
100
AcDbEntity
8
0
100
AcDbPolyline
90
4
70
1
43
0.0
10
301.19970000000001
20
390
10
298.19970000000001
20
390
10
298.19970000000001
20
375
10
301.19970000000001
20
375
0
LWPOLYLINE
5
164
100
AcDbEntity
8
0
100
AcDbPolyline
90
4
70
1
43
0.0
10
334.33299999999997
20
390
10
331.33299999999997
20
390
10
331.33299999999997
20
375
10
334.33299999999997
20
375
0
LWPOLYLINE
5
165
100
AcDbEntity
8
0
100
AcDbPolyline
90
4
70
1
43
0.0
10
367.46629999999993
20
390
10
364.46629999999999
20
390
10
364.46629999999999
20
375
10
367.46629999999993
20
375
0
LWPOLYLINE
5
166
100
AcDbEntity
8
0
100
AcDbPolyline
90
4
70
1
43
0.0
10
400.59959999999995
20
390
10
397.59960000000001
20
390
10
397.59960000000001
20
375
10
400.59959999999995
20
375
0
LWPOLYLINE
5
167
100
AcDbEntity
8
0
100
AcDbPolyline
90
4
70
1
43
0.0
10
433.73289999999997
20
390
10
430.73289999999997
20
390
10
430.73289999999997
20
375
10
433.73289999999997
20
375
0
LWPOLYLINE
5
168
100
AcDbEntity
8
0
100
AcDbPolyline
90
4
70
1
43
0.0
10
466.86619999999999
20
390
10
463.86619999999999
20
390
10
463.86619999999999
20
375
10
466.86619999999999
20
375
0
LWPOLYLINE
5
169
100
AcDbEntity
8
0
100
AcDbPolyline
90
4
70
1
43
0.0
10
499.99950000000001
20
390
10
496.99950000000001
20
390
10
496.99950000000001
20
375
10
499.99950000000001
20
375
0
LWPOLYLINE
5
170
100
AcDbEntity
8
0
100
AcDbPolyline
90
4
70
1
43
0.0
10
3.0000000000000004
20
360
10
0
20
360
10
0
20
345
10
3.0000000000000004
20
345
0
LWPOLYLINE
5
171
100
AcDbEntity
8
0
100
AcDbPolyline
90
4
70
1
43
0.0
10
36.133300000000006
20
360
10
33.133299999999998
20
360
10
33.133299999999998
20
345
10
36.133300000000006
20
345
0
LWPOLYLINE
5
172
100
AcDbEntity
8
0
100
AcDbPolyline
90
4
70
1
43
0.0
10
69.266599999999997
20
360
10
66.266599999999997
20
360
10
66.266599999999997
20
345
10
69.266599999999997
20
345
0
LWPOLYLINE
5
173
100
AcDbEntity
8
0
100
AcDbPolyline
90
4
70
1
43
0.0
10
102.3999
20
360
10
99.399900000000002
20
360
10
99.399900000000002
20
345
10
102.3999
20
345
0
LWPOLYLINE
5
174
100
AcDbEntity
8
0
100
AcDbPolyline
90
4
70
1
43
0.0
10
135.53320000000002
20
360
10
132.53319999999999
20
360
10
132.53319999999999
20
345
10
135.53320000000002
20
345
0
LWPOLYLINE
5
175
100
AcDbEntity
8
0
100
AcDbPolyline
90
4
70
1
43
0.0
10
168.66649999999998
20
360
10
165.66649999999998
20
360
10
165.66649999999998
20
345
10
168.66649999999998
20
345
0
LWPOLYLINE
5
176
100
AcDbEntity
8
0
100
AcDbPolyline
90
4
70
1
43
0.0
10
201.7998
20
360
10
198.7998
20
360
10
198.7998
20
345
10
201.7998
20
345
0
LWPOLYLINE
5
177
100
AcDbEntity
8
0
100
AcDbPolyline
90
4
70
1
43
0.0
10
234.93310000000002
20
360
10
231.9331
20
360
10
231.9331
20
345
10
234.93310000000002
20
345
0
LWPOLYLINE
5
178
100
AcDbEntity
8
0
100
AcDbPolyline
90
4
70
1
43
0.0
10
268.06640000000004
20
360
10
265.06639999999999
20
360
10
265.06639999999999
20
345
10
268.06640000000004
20
345
0
LWPOLYLINE
5
179
100
AcDbEntity
8
0
100
AcDbPolyline
90
4
70
1
43
0.0
10
301.19970000000001
20
360
10
298.19970000000001
20
360
10
298.19970000000001
20
345
10
301.19970000000001
20
345
0
LWPOLYLINE
5
180
100
AcDbEntity
8
0
100
AcDbPolyline
90
4
70
1
43
0.0
10
334.33299999999997
20
360
10
331.33299999999997
20
360
10
331.33299999999997
20
345
10
334.33299999999997
20
345
0
LWPOLYLINE
5
181
100
AcDbEntity
8
0
100
AcDbPolyline
90
4
70
1
43
0.0
10
367.46629999999993
20
360
10
364.46629999999999
20
360
10
364.46629999999999
20
345
10
367.46629999999993
20
345
0
LWPOLYLINE
5
182
100
AcDbEntity
8
0
100
AcDbPolyline
90
4
70
1
43
0.0
10
400.59959999999995
20
360
10
397.59960000000001
20
360
10
397.59960000000001
20
345
10
400.59959999999995
20
345
0
LWPOLYLINE
5
183
100
AcDbEntity
8
0
100
AcDbPolyline
90
4
70
1
43
0.0
10
433.73289999999997
20
360
10
430.73289999999997
20
360
10
430.73289999999997
20
345
10
433.73289999999997
20
345
0
LWPOLYLINE
5
184
100
AcDbEntity
8
0
100
AcDbPolyline
90
4
70
1
43
0.0
10
466.86619999999999
20
360
10
463.86619999999999
20
360
10
463.86619999999999
20
345
10
466.86619999999999
20
345
0
LWPOLYLINE
5
185
100
AcDbEntity
8
0
100
AcDbPolyline
90
4
70
1
43
0.0
10
499.99950000000001
20
360
10
496.99950000000001
20
360
10
496.99950000000001
20
345
10
499.99950000000001
20
345
0
LWPOLYLINE
5
186
100
AcDbEntity
8
0
100
AcDbPolyline
90
4
70
1
43
0.0
10
3.0000000000000004
20
330
10
0
20
330
10
0
20
315
10
3.0000000000000004
20
315
0
LWPOLYLINE
5
187
100
AcDbEntity
8
0
100
AcDbPolyline
90
4
70
1
43
0.0
10
36.133300000000006
20
330
10
33.133299999999998
20
330
10
33.133299999999998
20
315
10
36.133300000000006
20
315
0
LWPOLYLINE
5
188
100
AcDbEntity
8
0
100
AcDbPolyline
90
4
70
1
43
0.0
10
69.266599999999997
20
330
10
66.266599999999997
20
330
10
66.266599999999997
20
315
10
69.266599999999997
20
315
0
LWPOLYLINE
5
189
100
AcDbEntity
8
0
100
AcDbPolyline
90
4
70
1
43
0.0
10
102.3999
20
330
10
99.399900000000002
20
330
10
99.399900000000002
20
315
10
102.3999
20
315
0
LWPOLYLINE
5
190
100
AcDbEntity
8
0
100
AcDbPolyline
90
4
70
1
43
0.0
10
135.53320000000002
20
330
10
132.53319999999999
20
330
10
132.53319999999999
20
315
10
135.53320000000002
20
315
0
LWPOLYLINE
5
191
100
AcDbEntity
8
0
100
AcDbPolyline
90
4
70
1
43
0.0
10
168.66649999999998
20
330
10
165.66649999999998
20
330
10
165.66649999999998
20
315
10
168.66649999999998
20
315
0
LWPOLYLINE
5
192
100
AcDbEntity
8
0
100
AcDbPolyline
90
4
70
1
43
0.0
10
201.7998
20
330
10
198.7998
20
330
10
198.7998
20
315
10
201.7998
20
315
0
LWPOLYLINE
5
193
100
AcDbEntity
8
0
100
AcDbPolyline
90
4
70
1
43
0.0
10
234.93310000000002
20
330
10
231.9331
20
330
10
231.9331
20
315
10
234.93310000000002
20
315
0
LWPOLYLINE
5
194
100
AcDbEntity
8
0
100
AcDbPolyline
90
4
70
1
43
0.0
10
268.06640000000004
20
330
10
265.06639999999999
20
330
10
265.06639999999999
20
315
10
268.06640000000004
20
315
0
LWPOLYLINE
5
195
100
AcDbEntity
8
0
100
AcDbPolyline
90
4
70
1
43
0.0
10
301.19970000000001
20
330
10
298.19970000000001
20
330
10
298.19970000000001
20
315
10
301.19970000000001
20
315
0
LWPOLYLINE
5
196
100
AcDbEntity
8
0
100
AcDbPolyline
90
4
70
1
43
0.0
10
334.33299999999997
20
330
10
331.33299999999997
20
330
10
331.33299999999997
20
315
10
334.33299999999997
20
315
0
LWPOLYLINE
5
197
100
AcDbEntity
8
0
100
AcDbPolyline
90
4
70
1
43
0.0
10
367.46629999999993
20
330
10
364.46629999999999
20
330
10
364.46629999999999
20
315
10
367.46629999999993
20
315
0
LWPOLYLINE
5
198
100
AcDbEntity
8
0
100
AcDbPolyline
90
4
70
1
43
0.0
10
400.59959999999995
20
330
10
397.59960000000001
20
330
10
397.59960000000001
20
315
10
400.59959999999995
20
315
0
LWPOLYLINE
5
199
100
AcDbEntity
8
0
100
AcDbPolyline
90
4
70
1
43
0.0
10
433.73289999999997
20
330
10
430.73289999999997
20
330
10
430.73289999999997
20
315
10
433.73289999999997
20
315
0
LWPOLYLINE
5
200
100
AcDbEntity
8
0
100
AcDbPolyline
90
4
70
1
43
0.0
10
466.86619999999999
20
330
10
463.86619999999999
20
330
10
463.86619999999999
20
315
10
466.86619999999999
20
315
0
LWPOLYLINE
5
201
100
AcDbEntity
8
0
100
AcDbPolyline
90
4
70
1
43
0.0
10
499.99950000000001
20
330
10
496.99950000000001
20
330
10
496.99950000000001
20
315
10
499.99950000000001
20
315
0
LWPOLYLINE
5
202
100
AcDbEntity
8
0
100
AcDbPolyline
90
4
70
1
43
0.0
10
3.0000000000000004
20
300
10
0
20
300
10
0
20
285
10
3.0000000000000004
20
285
0
LWPOLYLINE
5
203
100
AcDbEntity
8
0
100
AcDbPolyline
90
4
70
1
43
0.0
10
36.133300000000006
20
300
10
33.133299999999998
20
300
10
33.133299999999998
20
285
10
36.133300000000006
20
285
0
LWPOLYLINE
5
204
100
AcDbEntity
8
0
100
AcDbPolyline
90
4
70
1
43
0.0
10
69.266599999999997
20
300
10
66.266599999999997
20
300
10
66.266599999999997
20
285
10
69.266599999999997
20
285
0
LWPOLYLINE
5
205
100
AcDbEntity
8
0
100
AcDbPolyline
90
4
70
1
43
0.0
10
102.3999
20
300
10
99.399900000000002
20
300
10
99.399900000000002
20
285
10
102.3999
20
285
0
LWPOLYLINE
5
206
100
AcDbEntity
8
0
100
AcDbPolyline
90
4
70
1
43
0.0
10
135.53320000000002
20
300
10
132.53319999999999
20
300
10
132.53319999999999
20
285
10
135.53320000000002
20
285
0
LWPOLYLINE
5
207
100
AcDbEntity
8
0
100
AcDbPolyline
90
4
70
1
43
0.0
10
168.66649999999998
20
300
10
165.66649999999998
20
300
10
165.66649999999998
20
285
10
168.66649999999998
20
285
0
LWPOLYLINE
5
208
100
AcDbEntity
8
0
100
AcDbPolyline
90
4
70
1
43
0.0
10
201.7998
20
300
10
198.7998
20
300
10
198.7998
20
285
10
201.7998
20
285
0
LWPOLYLINE
5
209
100
AcDbEntity
8
0
100
AcDbPolyline
90
4
70
1
43
0.0
10
234.93310000000002
20
300
10
231.9331
20
300
10
231.9331
20
285
10
234.93310000000002
20
285
0
LWPOLYLINE
5
210
100
AcDbEntity
8
0
100
AcDbPolyline
90
4
70
1
43
0.0
10
268.06640000000004
20
300
10
265.06639999999999
20
300
10
265.06639999999999
20
285
10
268.06640000000004
20
285
0
LWPOLYLINE
5
211
100
AcDbEntity
8
0
100
AcDbPolyline
90
4
70
1
43
0.0
10
301.19970000000001
20
300
10
298.19970000000001
20
300
10
298.19970000000001
20
285
10
301.19970000000001
20
285
0
LWPOLYLINE
5
212
100
AcDbEntity
8
0
100
AcDbPolyline
90
4
70
1
43
0.0
10
334.33299999999997
20
300
10
331.33299999999997
20
300
10
331.33299999999997
20
285
10
334.33299999999997
20
285
0
LWPOLYLINE
5
213
100
AcDbEntity
8
0
100
AcDbPolyline
90
4
70
1
43
0.0
10
367.46629999999993
20
300
10
364.46629999999999
20
300
10
364.46629999999999
20
285
10
367.46629999999993
20
285
0
LWPOLYLINE
5
214
100
AcDbEntity
8
0
100
AcDbPolyline
90
4
70
1
43
0.0
10
400.59959999999995
20
300
10
397.59960000000001
20
300
10
397.59960000000001
20
285
10
400.59959999999995
20
285
0
LWPOLYLINE
5
215
100
AcDbEntity
8
0
100
AcDbPolyline
90
4
70
1
43
0.0
10
433.73289999999997
20
300
10
430.73289999999997
20
300
10
430.73289999999997
20
285
10
433.73289999999997
20
285
0
LWPOLYLINE
5
216
100
AcDbEntity
8
0
100
AcDbPolyline
90
4
70
1
43
0.0
10
466.86619999999999
20
300
10
463.86619999999999
20
300
10
463.86619999999999
20
285
10
466.86619999999999
20
285
0
LWPOLYLINE
5
217
100
AcDbEntity
8
0
100
AcDbPolyline
90
4
70
1
43
0.0
10
499.99950000000001
20
300
10
496.99950000000001
20
300
10
496.99950000000001
20
285
10
499.99950000000001
20
285
0
LWPOLYLINE
5
218
100
AcDbEntity
8
0
100
AcDbPolyline
90
4
70
1
43
0.0
10
3.0000000000000004
20
270
10
0
20
270
10
0
20
255
10
3.0000000000000004
20
255
0
LWPOLYLINE
5
219
100
AcDbEntity
8
0
100
AcDbPolyline
90
4
70
1
43
0.0
10
36.133300000000006
20
270
10
33.133299999999998
20
270
10
33.133299999999998
20
255
10
36.133300000000006
20
255
0
LWPOLYLINE
5
220
100
AcDbEntity
8
0
100
AcDbPolyline
90
4
70
1
43
0.0
10
69.266599999999997
20
270
10
66.266599999999997
20
270
10
66.266599999999997
20
255
10
69.266599999999997
20
255
0
LWPOLYLINE
5
221
100
AcDbEntity
8
0
100
AcDbPolyline
90
4
70
1
43
0.0
10
102.3999
20
270
10
99.399900000000002
20
270
10
99.399900000000002
20
255
10
102.3999
20
255
0
LWPOLYLINE
5
222
100
AcDbEntity
8
0
100
AcDbPolyline
90
4
70
1
43
0.0
10
135.53320000000002
20
270
10
132.53319999999999
20
270
10
132.53319999999999
20
255
10
135.53320000000002
20
255
0
LWPOLYLINE
5
223
100
AcDbEntity
8
0
100
AcDbPolyline
90
4
70
1
43
0.0
10
168.66649999999998
20
270
10
165.66649999999998
20
270
10
165.66649999999998
20
255
10
168.66649999999998
20
255
0
LWPOLYLINE
5
224
100
AcDbEntity
8
0
100
AcDbPolyline
90
4
70
1
43
0.0
10
201.7998
20
270
10
198.7998
20
270
10
198.7998
20
255
10
201.7998
20
255
0
LWPOLYLINE
5
225
100
AcDbEntity
8
0
100
AcDbPolyline
90
4
70
1
43
0.0
10
234.93310000000002
20
270
10
231.9331
20
270
10
231.9331
20
255
10
234.93310000000002
20
255
0
LWPOLYLINE
5
226
100
AcDbEntity
8
0
100
AcDbPolyline
90
4
70
1
43
0.0
10
268.06640000000004
20
270
10
265.06639999999999
20
270
10
265.06639999999999
20
255
10
268.06640000000004
20
255
0
LWPOLYLINE
5
227
100
AcDbEntity
8
0
100
AcDbPolyline
90
4
70
1
43
0.0
10
301.19970000000001
20
270
10
298.19970000000001
20
270
10
298.19970000000001
20
255
10
301.19970000000001
20
255
0
LWPOLYLINE
5
228
100
AcDbEntity
8
0
100
AcDbPolyline
90
4
70
1
43
0.0
10
334.33299999999997
20
270
10
331.33299999999997
20
270
10
331.33299999999997
20
255
10
334.33299999999997
20
255
0
LWPOLYLINE
5
229
100
AcDbEntity
8
0
100
AcDbPolyline
90
4
70
1
43
0.0
10
367.46629999999993
20
270
10
364.46629999999999
20
270
10
364.46629999999999
20
255
10
367.46629999999993
20
255
0
LWPOLYLINE
5
230
100
AcDbEntity
8
0
100
AcDbPolyline
90
4
70
1
43
0.0
10
400.59959999999995
20
270
10
397.59960000000001
20
270
10
397.59960000000001
20
255
10
400.59959999999995
20
255
0
LWPOLYLINE
5
231
100
AcDbEntity
8
0
100
AcDbPolyline
90
4
70
1
43
0.0
10
433.73289999999997
20
270
10
430.73289999999997
20
270
10
430.73289999999997
20
255
10
433.73289999999997
20
255
0
LWPOLYLINE
5
232
100
AcDbEntity
8
0
100
AcDbPolyline
90
4
70
1
43
0.0
10
466.86619999999999
20
270
10
463.86619999999999
20
270
10
463.86619999999999
20
255
10
466.86619999999999
20
255
0
LWPOLYLINE
5
233
100
AcDbEntity
8
0
100
AcDbPolyline
90
4
70
1
43
0.0
10
499.99950000000001
20
270
10
496.99950000000001
20
270
10
496.99950000000001
20
255
10
499.99950000000001
20
255
0
LWPOLYLINE
5
234
100
AcDbEntity
8
0
100
AcDbPolyline
90
4
70
1
43
0.0
10
3.0000000000000004
20
240
10
0
20
240
10
0
20
225
10
3.0000000000000004
20
225
0
LWPOLYLINE
5
235
100
AcDbEntity
8
0
100
AcDbPolyline
90
4
70
1
43
0.0
10
36.133300000000006
20
240
10
33.133299999999998
20
240
10
33.133299999999998
20
225
10
36.133300000000006
20
225
0
LWPOLYLINE
5
236
100
AcDbEntity
8
0
100
AcDbPolyline
90
4
70
1
43
0.0
10
69.266599999999997
20
240
10
66.266599999999997
20
240
10
66.266599999999997
20
225
10
69.266599999999997
20
225
0
LWPOLYLINE
5
237
100
AcDbEntity
8
0
100
AcDbPolyline
90
4
70
1
43
0.0
10
102.3999
20
240
10
99.399900000000002
20
240
10
99.399900000000002
20
225
10
102.3999
20
225
0
LWPOLYLINE
5
238
100
AcDbEntity
8
0
100
AcDbPolyline
90
4
70
1
43
0.0
10
135.53320000000002
20
240
10
132.53319999999999
20
240
10
132.53319999999999
20
225
10
135.53320000000002
20
225
0
LWPOLYLINE
5
239
100
AcDbEntity
8
0
100
AcDbPolyline
90
4
70
1
43
0.0
10
168.66649999999998
20
240
10
165.66649999999998
20
240
10
165.66649999999998
20
225
10
168.66649999999998
20
225
0
LWPOLYLINE
5
240
100
AcDbEntity
8
0
100
AcDbPolyline
90
4
70
1
43
0.0
10
201.7998
20
240
10
198.7998
20
240
10
198.7998
20
225
10
201.7998
20
225
0
LWPOLYLINE
5
241
100
AcDbEntity
8
0
100
AcDbPolyline
90
4
70
1
43
0.0
10
234.93310000000002
20
240
10
231.9331
20
240
10
231.9331
20
225
10
234.93310000000002
20
225
0
LWPOLYLINE
5
242
100
AcDbEntity
8
0
100
AcDbPolyline
90
4
70
1
43
0.0
10
268.06640000000004
20
240
10
265.06639999999999
20
240
10
265.06639999999999
20
225
10
268.06640000000004
20
225
0
LWPOLYLINE
5
243
100
AcDbEntity
8
0
100
AcDbPolyline
90
4
70
1
43
0.0
10
301.19970000000001
20
240
10
298.19970000000001
20
240
10
298.19970000000001
20
225
10
301.19970000000001
20
225
0
LWPOLYLINE
5
244
100
AcDbEntity
8
0
100
AcDbPolyline
90
4
70
1
43
0.0
10
334.33299999999997
20
240
10
331.33299999999997
20
240
10
331.33299999999997
20
225
10
334.33299999999997
20
225
0
LWPOLYLINE
5
245
100
AcDbEntity
8
0
100
AcDbPolyline
90
4
70
1
43
0.0
10
367.46629999999993
20
240
10
364.46629999999999
20
240
10
364.46629999999999
20
225
10
367.46629999999993
20
225
0
LWPOLYLINE
5
246
100
AcDbEntity
8
0
100
AcDbPolyline
90
4
70
1
43
0.0
10
400.59959999999995
20
240
10
397.59960000000001
20
240
10
397.59960000000001
20
225
10
400.59959999999995
20
225
0
LWPOLYLINE
5
247
100
AcDbEntity
8
0
100
AcDbPolyline
90
4
70
1
43
0.0
10
433.73289999999997
20
240
10
430.73289999999997
20
240
10
430.73289999999997
20
225
10
433.73289999999997
20
225
0
LWPOLYLINE
5
248
100
AcDbEntity
8
0
100
AcDbPolyline
90
4
70
1
43
0.0
10
466.86619999999999
20
240
10
463.86619999999999
20
240
10
463.86619999999999
20
225
10
466.86619999999999
20
225
0
LWPOLYLINE
5
249
100
AcDbEntity
8
0
100
AcDbPolyline
90
4
70
1
43
0.0
10
499.99950000000001
20
240
10
496.99950000000001
20
240
10
496.99950000000001
20
225
10
499.99950000000001
20
225
0
LWPOLYLINE
5
250
100
AcDbEntity
8
0
100
AcDbPolyline
90
4
70
1
43
0.0
10
3.0000000000000004
20
210
10
0
20
210
10
0
20
195
10
3.0000000000000004
20
195
0
LWPOLYLINE
5
251
100
AcDbEntity
8
0
100
AcDbPolyline
90
4
70
1
43
0.0
10
36.133300000000006
20
210
10
33.133299999999998
20
210
10
33.133299999999998
20
195
10
36.133300000000006
20
195
0
LWPOLYLINE
5
252
100
AcDbEntity
8
0
100
AcDbPolyline
90
4
70
1
43
0.0
10
69.266599999999997
20
210
10
66.266599999999997
20
210
10
66.266599999999997
20
195
10
69.266599999999997
20
195
0
LWPOLYLINE
5
253
100
AcDbEntity
8
0
100
AcDbPolyline
90
4
70
1
43
0.0
10
102.3999
20
210
10
99.399900000000002
20
210
10
99.399900000000002
20
195
10
102.3999
20
195
0
LWPOLYLINE
5
254
100
AcDbEntity
8
0
100
AcDbPolyline
90
4
70
1
43
0.0
10
135.53320000000002
20
210
10
132.53319999999999
20
210
10
132.53319999999999
20
195
10
135.53320000000002
20
195
0
LWPOLYLINE
5
255
100
AcDbEntity
8
0
100
AcDbPolyline
90
4
70
1
43
0.0
10
168.66649999999998
20
210
10
165.66649999999998
20
210
10
165.66649999999998
20
195
10
168.66649999999998
20
195
0
LWPOLYLINE
5
256
100
AcDbEntity
8
0
100
AcDbPolyline
90
4
70
1
43
0.0
10
201.7998
20
210
10
198.7998
20
210
10
198.7998
20
195
10
201.7998
20
195
0
LWPOLYLINE
5
257
100
AcDbEntity
8
0
100
AcDbPolyline
90
4
70
1
43
0.0
10
234.93310000000002
20
210
10
231.9331
20
210
10
231.9331
20
195
10
234.93310000000002
20
195
0
LWPOLYLINE
5
258
100
AcDbEntity
8
0
100
AcDbPolyline
90
4
70
1
43
0.0
10
268.06640000000004
20
210
10
265.06639999999999
20
210
10
265.06639999999999
20
195
10
268.06640000000004
20
195
0
LWPOLYLINE
5
259
100
AcDbEntity
8
0
100
AcDbPolyline
90
4
70
1
43
0.0
10
301.19970000000001
20
210
10
298.19970000000001
20
210
10
298.19970000000001
20
195
10
301.19970000000001
20
195
0
LWPOLYLINE
5
260
100
AcDbEntity
8
0
100
AcDbPolyline
90
4
70
1
43
0.0
10
334.33299999999997
20
210
10
331.33299999999997
20
210
10
331.33299999999997
20
195
10
334.33299999999997
20
195
0
LWPOLYLINE
5
261
100
AcDbEntity
8
0
100
AcDbPolyline
90
4
70
1
43
0.0
10
367.46629999999993
20
210
10
364.46629999999999
20
210
10
364.46629999999999
20
195
10
367.46629999999993
20
195
0
LWPOLYLINE
5
262
100
AcDbEntity
8
0
100
AcDbPolyline
90
4
70
1
43
0.0
10
400.59959999999995
20
210
10
397.59960000000001
20
210
10
397.59960000000001
20
195
10
400.59959999999995
20
195
0
LWPOLYLINE
5
263
100
AcDbEntity
8
0
100
AcDbPolyline
90
4
70
1
43
0.0
10
433.73289999999997
20
210
10
430.73289999999997
20
210
10
430.73289999999997
20
195
10
433.73289999999997
20
195
0
LWPOLYLINE
5
264
100
AcDbEntity
8
0
100
AcDbPolyline
90
4
70
1
43
0.0
10
466.86619999999999
20
210
10
463.86619999999999
20
210
10
463.86619999999999
20
195
10
466.86619999999999
20
195
0
LWPOLYLINE
5
265
100
AcDbEntity
8
0
100
AcDbPolyline
90
4
70
1
43
0.0
10
499.99950000000001
20
210
10
496.99950000000001
20
210
10
496.99950000000001
20
195
10
499.99950000000001
20
195
0
LWPOLYLINE
5
266
100
AcDbEntity
8
0
100
AcDbPolyline
90
4
70
1
43
0.0
10
3.0000000000000004
20
180
10
0
20
180
10
0
20
165
10
3.0000000000000004
20
165
0
LWPOLYLINE
5
267
100
AcDbEntity
8
0
100
AcDbPolyline
90
4
70
1
43
0.0
10
36.133300000000006
20
180
10
33.133299999999998
20
180
10
33.133299999999998
20
165
10
36.133300000000006
20
165
0
LWPOLYLINE
5
268
100
AcDbEntity
8
0
100
AcDbPolyline
90
4
70
1
43
0.0
10
69.266599999999997
20
180
10
66.266599999999997
20
180
10
66.266599999999997
20
165
10
69.266599999999997
20
165
0
LWPOLYLINE
5
269
100
AcDbEntity
8
0
100
AcDbPolyline
90
4
70
1
43
0.0
10
102.3999
20
180
10
99.399900000000002
20
180
10
99.399900000000002
20
165
10
102.3999
20
165
0
LWPOLYLINE
5
270
100
AcDbEntity
8
0
100
AcDbPolyline
90
4
70
1
43
0.0
10
135.53320000000002
20
180
10
132.53319999999999
20
180
10
132.53319999999999
20
165
10
135.53320000000002
20
165
0
LWPOLYLINE
5
271
100
AcDbEntity
8
0
100
AcDbPolyline
90
4
70
1
43
0.0
10
168.66649999999998
20
180
10
165.66649999999998
20
180
10
165.66649999999998
20
165
10
168.66649999999998
20
165
0
LWPOLYLINE
5
272
100
AcDbEntity
8
0
100
AcDbPolyline
90
4
70
1
43
0.0
10
201.7998
20
180
10
198.7998
20
180
10
198.7998
20
165
10
201.7998
20
165
0
LWPOLYLINE
5
273
100
AcDbEntity
8
0
100
AcDbPolyline
90
4
70
1
43
0.0
10
234.93310000000002
20
180
10
231.9331
20
180
10
231.9331
20
165
10
234.93310000000002
20
165
0
LWPOLYLINE
5
274
100
AcDbEntity
8
0
100
AcDbPolyline
90
4
70
1
43
0.0
10
268.06640000000004
20
180
10
265.06639999999999
20
180
10
265.06639999999999
20
165
10
268.06640000000004
20
165
0
LWPOLYLINE
5
275
100
AcDbEntity
8
0
100
AcDbPolyline
90
4
70
1
43
0.0
10
301.19970000000001
20
180
10
298.19970000000001
20
180
10
298.19970000000001
20
165
10
301.19970000000001
20
165
0
LWPOLYLINE
5
276
100
AcDbEntity
8
0
100
AcDbPolyline
90
4
70
1
43
0.0
10
334.33299999999997
20
180
10
331.33299999999997
20
180
10
331.33299999999997
20
165
10
334.33299999999997
20
165
0
LWPOLYLINE
5
277
100
AcDbEntity
8
0
100
AcDbPolyline
90
4
70
1
43
0.0
10
367.46629999999993
20
180
10
364.46629999999999
20
180
10
364.46629999999999
20
165
10
367.46629999999993
20
165
0
LWPOLYLINE
5
278
100
AcDbEntity
8
0
100
AcDbPolyline
90
4
70
1
43
0.0
10
400.59959999999995
20
180
10
397.59960000000001
20
180
10
397.59960000000001
20
165
10
400.59959999999995
20
165
0
LWPOLYLINE
5
279
100
AcDbEntity
8
0
100
AcDbPolyline
90
4
70
1
43
0.0
10
433.73289999999997
20
180
10
430.73289999999997
20
180
10
430.73289999999997
20
165
10
433.73289999999997
20
165
0
LWPOLYLINE
5
280
100
AcDbEntity
8
0
100
AcDbPolyline
90
4
70
1
43
0.0
10
466.86619999999999
20
180
10
463.86619999999999
20
180
10
463.86619999999999
20
165
10
466.86619999999999
20
165
0
LWPOLYLINE
5
281
100
AcDbEntity
8
0
100
AcDbPolyline
90
4
70
1
43
0.0
10
499.99950000000001
20
180
10
496.99950000000001
20
180
10
496.99950000000001
20
165
10
499.99950000000001
20
165
0
LWPOLYLINE
5
282
100
AcDbEntity
8
0
100
AcDbPolyline
90
4
70
1
43
0.0
10
3.0000000000000004
20
150
10
0
20
150
10
0
20
135
10
3.0000000000000004
20
135
0
LWPOLYLINE
5
283
100
AcDbEntity
8
0
100
AcDbPolyline
90
4
70
1
43
0.0
10
36.133300000000006
20
150
10
33.133299999999998
20
150
10
33.133299999999998
20
135
10
36.133300000000006
20
135
0
LWPOLYLINE
5
284
100
AcDbEntity
8
0
100
AcDbPolyline
90
4
70
1
43
0.0
10
69.266599999999997
20
150
10
66.266599999999997
20
150
10
66.266599999999997
20
135
10
69.266599999999997
20
135
0
LWPOLYLINE
5
285
100
AcDbEntity
8
0
100
AcDbPolyline
90
4
70
1
43
0.0
10
102.3999
20
150
10
99.399900000000002
20
150
10
99.399900000000002
20
135
10
102.3999
20
135
0
LWPOLYLINE
5
286
100
AcDbEntity
8
0
100
AcDbPolyline
90
4
70
1
43
0.0
10
135.53320000000002
20
150
10
132.53319999999999
20
150
10
132.53319999999999
20
135
10
135.53320000000002
20
135
0
LWPOLYLINE
5
287
100
AcDbEntity
8
0
100
AcDbPolyline
90
4
70
1
43
0.0
10
168.66649999999998
20
150
10
165.66649999999998
20
150
10
165.66649999999998
20
135
10
168.66649999999998
20
135
0
LWPOLYLINE
5
288
100
AcDbEntity
8
0
100
AcDbPolyline
90
4
70
1
43
0.0
10
201.7998
20
150
10
198.7998
20
150
10
198.7998
20
135
10
201.7998
20
135
0
LWPOLYLINE
5
289
100
AcDbEntity
8
0
100
AcDbPolyline
90
4
70
1
43
0.0
10
234.93310000000002
20
150
10
231.9331
20
150
10
231.9331
20
135
10
234.93310000000002
20
135
0
LWPOLYLINE
5
290
100
AcDbEntity
8
0
100
AcDbPolyline
90
4
70
1
43
0.0
10
268.06640000000004
20
150
10
265.06639999999999
20
150
10
265.06639999999999
20
135
10
268.06640000000004
20
135
0
LWPOLYLINE
5
291
100
AcDbEntity
8
0
100
AcDbPolyline
90
4
70
1
43
0.0
10
301.19970000000001
20
150
10
298.19970000000001
20
150
10
298.19970000000001
20
135
10
301.19970000000001
20
135
0
LWPOLYLINE
5
292
100
AcDbEntity
8
0
100
AcDbPolyline
90
4
70
1
43
0.0
10
334.33299999999997
20
150
10
331.33299999999997
20
150
10
331.33299999999997
20
135
10
334.33299999999997
20
135
0
LWPOLYLINE
5
293
100
AcDbEntity
8
0
100
AcDbPolyline
90
4
70
1
43
0.0
10
367.46629999999993
20
150
10
364.46629999999999
20
150
10
364.46629999999999
20
135
10
367.46629999999993
20
135
0
LWPOLYLINE
5
294
100
AcDbEntity
8
0
100
AcDbPolyline
90
4
70
1
43
0.0
10
400.59959999999995
20
150
10
397.59960000000001
20
150
10
397.59960000000001
20
135
10
400.59959999999995
20
135
0
LWPOLYLINE
5
295
100
AcDbEntity
8
0
100
AcDbPolyline
90
4
70
1
43
0.0
10
433.73289999999997
20
150
10
430.73289999999997
20
150
10
430.73289999999997
20
135
10
433.73289999999997
20
135
0
LWPOLYLINE
5
296
100
AcDbEntity
8
0
100
AcDbPolyline
90
4
70
1
43
0.0
10
466.86619999999999
20
150
10
463.86619999999999
20
150
10
463.86619999999999
20
135
10
466.86619999999999
20
135
0
LWPOLYLINE
5
297
100
AcDbEntity
8
0
100
AcDbPolyline
90
4
70
1
43
0.0
10
499.99950000000001
20
150
10
496.99950000000001
20
150
10
496.99950000000001
20
135
10
499.99950000000001
20
135
0
LWPOLYLINE
5
298
100
AcDbEntity
8
0
100
AcDbPolyline
90
4
70
1
43
0.0
10
3.0000000000000004
20
120
10
0
20
120
10
0
20
105
10
3.0000000000000004
20
105
0
LWPOLYLINE
5
299
100
AcDbEntity
8
0
100
AcDbPolyline
90
4
70
1
43
0.0
10
36.133300000000006
20
120
10
33.133299999999998
20
120
10
33.133299999999998
20
105
10
36.133300000000006
20
105
0
LWPOLYLINE
5
300
100
AcDbEntity
8
0
100
AcDbPolyline
90
4
70
1
43
0.0
10
69.266599999999997
20
120
10
66.266599999999997
20
120
10
66.266599999999997
20
105
10
69.266599999999997
20
105
0
LWPOLYLINE
5
301
100
AcDbEntity
8
0
100
AcDbPolyline
90
4
70
1
43
0.0
10
102.3999
20
120
10
99.399900000000002
20
120
10
99.399900000000002
20
105
10
102.3999
20
105
0
LWPOLYLINE
5
302
100
AcDbEntity
8
0
100
AcDbPolyline
90
4
70
1
43
0.0
10
135.53320000000002
20
120
10
132.53319999999999
20
120
10
132.53319999999999
20
105
10
135.53320000000002
20
105
0
LWPOLYLINE
5
303
100
AcDbEntity
8
0
100
AcDbPolyline
90
4
70
1
43
0.0
10
168.66649999999998
20
120
10
165.66649999999998
20
120
10
165.66649999999998
20
105
10
168.66649999999998
20
105
0
LWPOLYLINE
5
304
100
AcDbEntity
8
0
100
AcDbPolyline
90
4
70
1
43
0.0
10
201.7998
20
120
10
198.7998
20
120
10
198.7998
20
105
10
201.7998
20
105
0
LWPOLYLINE
5
305
100
AcDbEntity
8
0
100
AcDbPolyline
90
4
70
1
43
0.0
10
234.93310000000002
20
120
10
231.9331
20
120
10
231.9331
20
105
10
234.93310000000002
20
105
0
LWPOLYLINE
5
306
100
AcDbEntity
8
0
100
AcDbPolyline
90
4
70
1
43
0.0
10
268.06640000000004
20
120
10
265.06639999999999
20
120
10
265.06639999999999
20
105
10
268.06640000000004
20
105
0
LWPOLYLINE
5
307
100
AcDbEntity
8
0
100
AcDbPolyline
90
4
70
1
43
0.0
10
301.19970000000001
20
120
10
298.19970000000001
20
120
10
298.19970000000001
20
105
10
301.19970000000001
20
105
0
LWPOLYLINE
5
308
100
AcDbEntity
8
0
100
AcDbPolyline
90
4
70
1
43
0.0
10
334.33299999999997
20
120
10
331.33299999999997
20
120
10
331.33299999999997
20
105
10
334.33299999999997
20
105
0
LWPOLYLINE
5
309
100
AcDbEntity
8
0
100
AcDbPolyline
90
4
70
1
43
0.0
10
367.46629999999993
20
120
10
364.46629999999999
20
120
10
364.46629999999999
20
105
10
367.46629999999993
20
105
0
LWPOLYLINE
5
310
100
AcDbEntity
8
0
100
AcDbPolyline
90
4
70
1
43
0.0
10
400.59959999999995
20
120
10
397.59960000000001
20
120
10
397.59960000000001
20
105
10
400.59959999999995
20
105
0
LWPOLYLINE
5
311
100
AcDbEntity
8
0
100
AcDbPolyline
90
4
70
1
43
0.0
10
433.73289999999997
20
120
10
430.73289999999997
20
120
10
430.73289999999997
20
105
10
433.73289999999997
20
105
0
LWPOLYLINE
5
312
100
AcDbEntity
8
0
100
AcDbPolyline
90
4
70
1
43
0.0
10
466.86619999999999
20
120
10
463.86619999999999
20
120
10
463.86619999999999
20
105
10
466.86619999999999
20
105
0
LWPOLYLINE
5
313
100
AcDbEntity
8
0
100
AcDbPolyline
90
4
70
1
43
0.0
10
499.99950000000001
20
120
10
496.99950000000001
20
120
10
496.99950000000001
20
105
10
499.99950000000001
20
105
0
LWPOLYLINE
5
314
100
AcDbEntity
8
0
100
AcDbPolyline
90
4
70
1
43
0.0
10
3.0000000000000004
20
90
10
0
20
90
10
0
20
75
10
3.0000000000000004
20
75
0
LWPOLYLINE
5
315
100
AcDbEntity
8
0
100
AcDbPolyline
90
4
70
1
43
0.0
10
36.133300000000006
20
90
10
33.133299999999998
20
90
10
33.133299999999998
20
75
10
36.133300000000006
20
75
0
LWPOLYLINE
5
316
100
AcDbEntity
8
0
100
AcDbPolyline
90
4
70
1
43
0.0
10
69.266599999999997
20
90
10
66.266599999999997
20
90
10
66.266599999999997
20
75
10
69.266599999999997
20
75
0
LWPOLYLINE
5
317
100
AcDbEntity
8
0
100
AcDbPolyline
90
4
70
1
43
0.0
10
102.3999
20
90
10
99.399900000000002
20
90
10
99.399900000000002
20
75
10
102.3999
20
75
0
LWPOLYLINE
5
318
100
AcDbEntity
8
0
100
AcDbPolyline
90
4
70
1
43
0.0
10
135.53320000000002
20
90
10
132.53319999999999
20
90
10
132.53319999999999
20
75
10
135.53320000000002
20
75
0
LWPOLYLINE
5
319
100
AcDbEntity
8
0
100
AcDbPolyline
90
4
70
1
43
0.0
10
168.66649999999998
20
90
10
165.66649999999998
20
90
10
165.66649999999998
20
75
10
168.66649999999998
20
75
0
LWPOLYLINE
5
320
100
AcDbEntity
8
0
100
AcDbPolyline
90
4
70
1
43
0.0
10
201.7998
20
90
10
198.7998
20
90
10
198.7998
20
75
10
201.7998
20
75
0
LWPOLYLINE
5
321
100
AcDbEntity
8
0
100
AcDbPolyline
90
4
70
1
43
0.0
10
234.93310000000002
20
90
10
231.9331
20
90
10
231.9331
20
75
10
234.93310000000002
20
75
0
LWPOLYLINE
5
322
100
AcDbEntity
8
0
100
AcDbPolyline
90
4
70
1
43
0.0
10
268.06640000000004
20
90
10
265.06639999999999
20
90
10
265.06639999999999
20
75
10
268.06640000000004
20
75
0
LWPOLYLINE
5
323
100
AcDbEntity
8
0
100
AcDbPolyline
90
4
70
1
43
0.0
10
301.19970000000001
20
90
10
298.19970000000001
20
90
10
298.19970000000001
20
75
10
301.19970000000001
20
75
0
LWPOLYLINE
5
324
100
AcDbEntity
8
0
100
AcDbPolyline
90
4
70
1
43
0.0
10
334.33299999999997
20
90
10
331.33299999999997
20
90
10
331.33299999999997
20
75
10
334.33299999999997
20
75
0
LWPOLYLINE
5
325
100
AcDbEntity
8
0
100
AcDbPolyline
90
4
70
1
43
0.0
10
367.46629999999993
20
90
10
364.46629999999999
20
90
10
364.46629999999999
20
75
10
367.46629999999993
20
75
0
LWPOLYLINE
5
326
100
AcDbEntity
8
0
100
AcDbPolyline
90
4
70
1
43
0.0
10
400.59959999999995
20
90
10
397.59960000000001
20
90
10
397.59960000000001
20
75
10
400.59959999999995
20
75
0
LWPOLYLINE
5
327
100
AcDbEntity
8
0
100
AcDbPolyline
90
4
70
1
43
0.0
10
433.73289999999997
20
90
10
430.73289999999997
20
90
10
430.73289999999997
20
75
10
433.73289999999997
20
75
0
LWPOLYLINE
5
328
100
AcDbEntity
8
0
100
AcDbPolyline
90
4
70
1
43
0.0
10
466.86619999999999
20
90
10
463.86619999999999
20
90
10
463.86619999999999
20
75
10
466.86619999999999
20
75
0
LWPOLYLINE
5
329
100
AcDbEntity
8
0
100
AcDbPolyline
90
4
70
1
43
0.0
10
499.99950000000001
20
90
10
496.99950000000001
20
90
10
496.99950000000001
20
75
10
499.99950000000001
20
75
0
LWPOLYLINE
5
330
100
AcDbEntity
8
0
100
AcDbPolyline
90
4
70
1
43
0.0
10
3.0000000000000004
20
60
10
0
20
60
10
0
20
45
10
3.0000000000000004
20
45
0
LWPOLYLINE
5
331
100
AcDbEntity
8
0
100
AcDbPolyline
90
4
70
1
43
0.0
10
36.133300000000006
20
60
10
33.133299999999998
20
60
10
33.133299999999998
20
45
10
36.133300000000006
20
45
0
LWPOLYLINE
5
332
100
AcDbEntity
8
0
100
AcDbPolyline
90
4
70
1
43
0.0
10
69.266599999999997
20
60
10
66.266599999999997
20
60
10
66.266599999999997
20
45
10
69.266599999999997
20
45
0
LWPOLYLINE
5
333
100
AcDbEntity
8
0
100
AcDbPolyline
90
4
70
1
43
0.0
10
102.3999
20
60
10
99.399900000000002
20
60
10
99.399900000000002
20
45
10
102.3999
20
45
0
LWPOLYLINE
5
334
100
AcDbEntity
8
0
100
AcDbPolyline
90
4
70
1
43
0.0
10
135.53320000000002
20
60
10
132.53319999999999
20
60
10
132.53319999999999
20
45
10
135.53320000000002
20
45
0
LWPOLYLINE
5
335
100
AcDbEntity
8
0
100
AcDbPolyline
90
4
70
1
43
0.0
10
168.66649999999998
20
60
10
165.66649999999998
20
60
10
165.66649999999998
20
45
10
168.66649999999998
20
45
0
LWPOLYLINE
5
336
100
AcDbEntity
8
0
100
AcDbPolyline
90
4
70
1
43
0.0
10
201.7998
20
60
10
198.7998
20
60
10
198.7998
20
45
10
201.7998
20
45
0
LWPOLYLINE
5
337
100
AcDbEntity
8
0
100
AcDbPolyline
90
4
70
1
43
0.0
10
234.93310000000002
20
60
10
231.9331
20
60
10
231.9331
20
45
10
234.93310000000002
20
45
0
LWPOLYLINE
5
338
100
AcDbEntity
8
0
100
AcDbPolyline
90
4
70
1
43
0.0
10
268.06640000000004
20
60
10
265.06639999999999
20
60
10
265.06639999999999
20
45
10
268.06640000000004
20
45
0
LWPOLYLINE
5
339
100
AcDbEntity
8
0
100
AcDbPolyline
90
4
70
1
43
0.0
10
301.19970000000001
20
60
10
298.19970000000001
20
60
10
298.19970000000001
20
45
10
301.19970000000001
20
45
0
LWPOLYLINE
5
340
100
AcDbEntity
8
0
100
AcDbPolyline
90
4
70
1
43
0.0
10
334.33299999999997
20
60
10
331.33299999999997
20
60
10
331.33299999999997
20
45
10
334.33299999999997
20
45
0
LWPOLYLINE
5
341
100
AcDbEntity
8
0
100
AcDbPolyline
90
4
70
1
43
0.0
10
367.46629999999993
20
60
10
364.46629999999999
20
60
10
364.46629999999999
20
45
10
367.46629999999993
20
45
0
LWPOLYLINE
5
342
100
AcDbEntity
8
0
100
AcDbPolyline
90
4
70
1
43
0.0
10
400.59959999999995
20
60
10
397.59960000000001
20
60
10
397.59960000000001
20
45
10
400.59959999999995
20
45
0
LWPOLYLINE
5
343
100
AcDbEntity
8
0
100
AcDbPolyline
90
4
70
1
43
0.0
10
433.73289999999997
20
60
10
430.73289999999997
20
60
10
430.73289999999997
20
45
10
433.73289999999997
20
45
0
LWPOLYLINE
5
344
100
AcDbEntity
8
0
100
AcDbPolyline
90
4
70
1
43
0.0
10
466.86619999999999
20
60
10
463.86619999999999
20
60
10
463.86619999999999
20
45
10
466.86619999999999
20
45
0
LWPOLYLINE
5
345
100
AcDbEntity
8
0
100
AcDbPolyline
90
4
70
1
43
0.0
10
499.99950000000001
20
60
10
496.99950000000001
20
60
10
496.99950000000001
20
45
10
499.99950000000001
20
45
0
LWPOLYLINE
5
346
100
AcDbEntity
8
0
100
AcDbPolyline
90
4
70
1
43
0.0
10
3.0000000000000004
20
30
10
0
20
30
10
0
20
15
10
3.0000000000000004
20
15
0
LWPOLYLINE
5
347
100
AcDbEntity
8
0
100
AcDbPolyline
90
4
70
1
43
0.0
10
36.133300000000006
20
30
10
33.133299999999998
20
30
10
33.133299999999998
20
15
10
36.133300000000006
20
15
0
LWPOLYLINE
5
348
100
AcDbEntity
8
0
100
AcDbPolyline
90
4
70
1
43
0.0
10
69.266599999999997
20
30
10
66.266599999999997
20
30
10
66.266599999999997
20
15
10
69.266599999999997
20
15
0
LWPOLYLINE
5
349
100
AcDbEntity
8
0
100
AcDbPolyline
90
4
70
1
43
0.0
10
102.3999
20
30
10
99.399900000000002
20
30
10
99.399900000000002
20
15
10
102.3999
20
15
0
LWPOLYLINE
5
350
100
AcDbEntity
8
0
100
AcDbPolyline
90
4
70
1
43
0.0
10
135.53320000000002
20
30
10
132.53319999999999
20
30
10
132.53319999999999
20
15
10
135.53320000000002
20
15
0
LWPOLYLINE
5
351
100
AcDbEntity
8
0
100
AcDbPolyline
90
4
70
1
43
0.0
10
168.66649999999998
20
30
10
165.66649999999998
20
30
10
165.66649999999998
20
15
10
168.66649999999998
20
15
0
LWPOLYLINE
5
352
100
AcDbEntity
8
0
100
AcDbPolyline
90
4
70
1
43
0.0
10
201.7998
20
30
10
198.7998
20
30
10
198.7998
20
15
10
201.7998
20
15
0
LWPOLYLINE
5
353
100
AcDbEntity
8
0
100
AcDbPolyline
90
4
70
1
43
0.0
10
234.93310000000002
20
30
10
231.9331
20
30
10
231.9331
20
15
10
234.93310000000002
20
15
0
LWPOLYLINE
5
354
100
AcDbEntity
8
0
100
AcDbPolyline
90
4
70
1
43
0.0
10
268.06640000000004
20
30
10
265.06639999999999
20
30
10
265.06639999999999
20
15
10
268.06640000000004
20
15
0
LWPOLYLINE
5
355
100
AcDbEntity
8
0
100
AcDbPolyline
90
4
70
1
43
0.0
10
301.19970000000001
20
30
10
298.19970000000001
20
30
10
298.19970000000001
20
15
10
301.19970000000001
20
15
0
LWPOLYLINE
5
356
100
AcDbEntity
8
0
100
AcDbPolyline
90
4
70
1
43
0.0
10
334.33299999999997
20
30
10
331.33299999999997
20
30
10
331.33299999999997
20
15
10
334.33299999999997
20
15
0
LWPOLYLINE
5
357
100
AcDbEntity
8
0
100
AcDbPolyline
90
4
70
1
43
0.0
10
367.46629999999993
20
30
10
364.46629999999999
20
30
10
364.46629999999999
20
15
10
367.46629999999993
20
15
0
LWPOLYLINE
5
358
100
AcDbEntity
8
0
100
AcDbPolyline
90
4
70
1
43
0.0
10
400.59959999999995
20
30
10
397.59960000000001
20
30
10
397.59960000000001
20
15
10
400.59959999999995
20
15
0
LWPOLYLINE
5
359
100
AcDbEntity
8
0
100
AcDbPolyline
90
4
70
1
43
0.0
10
433.73289999999997
20
30
10
430.73289999999997
20
30
10
430.73289999999997
20
15
10
433.73289999999997
20
15
0
LWPOLYLINE
5
360
100
AcDbEntity
8
0
100
AcDbPolyline
90
4
70
1
43
0.0
10
466.86619999999999
20
30
10
463.86619999999999
20
30
10
463.86619999999999
20
15
10
466.86619999999999
20
15
0
LWPOLYLINE
5
361
100
AcDbEntity
8
0
100
AcDbPolyline
90
4
70
1
43
0.0
10
499.99950000000001
20
30
10
496.99950000000001
20
30
10
496.99950000000001
20
15
10
499.99950000000001
20
15
0
LWPOLYLINE
5
362
100
AcDbEntity
8
0
100
AcDbPolyline
90
4
70
1
43
0.0
10
3.0000000000000004
20
0
10
0
20
0
10
0
20
-15
10
3.0000000000000004
20
-15
0
LWPOLYLINE
5
363
100
AcDbEntity
8
0
100
AcDbPolyline
90
4
70
1
43
0.0
10
36.133300000000006
20
0
10
33.133299999999998
20
0
10
33.133299999999998
20
-15
10
36.133300000000006
20
-15
0
LWPOLYLINE
5
364
100
AcDbEntity
8
0
100
AcDbPolyline
90
4
70
1
43
0.0
10
69.266599999999997
20
0
10
66.266599999999997
20
0
10
66.266599999999997
20
-15
10
69.266599999999997
20
-15
0
LWPOLYLINE
5
365
100
AcDbEntity
8
0
100
AcDbPolyline
90
4
70
1
43
0.0
10
102.3999
20
0
10
99.399900000000002
20
0
10
99.399900000000002
20
-15
10
102.3999
20
-15
0
LWPOLYLINE
5
366
100
AcDbEntity
8
0
100
AcDbPolyline
90
4
70
1
43
0.0
10
135.53320000000002
20
0
10
132.53319999999999
20
0
10
132.53319999999999
20
-15
10
135.53320000000002
20
-15
0
LWPOLYLINE
5
367
100
AcDbEntity
8
0
100
AcDbPolyline
90
4
70
1
43
0.0
10
168.66649999999998
20
0
10
165.66649999999998
20
0
10
165.66649999999998
20
-15
10
168.66649999999998
20
-15
0
LWPOLYLINE
5
368
100
AcDbEntity
8
0
100
AcDbPolyline
90
4
70
1
43
0.0
10
201.7998
20
0
10
198.7998
20
0
10
198.7998
20
-15
10
201.7998
20
-15
0
LWPOLYLINE
5
369
100
AcDbEntity
8
0
100
AcDbPolyline
90
4
70
1
43
0.0
10
234.93310000000002
20
0
10
231.9331
20
0
10
231.9331
20
-15
10
234.93310000000002
20
-15
0
LWPOLYLINE
5
370
100
AcDbEntity
8
0
100
AcDbPolyline
90
4
70
1
43
0.0
10
268.06640000000004
20
0
10
265.06639999999999
20
0
10
265.06639999999999
20
-15
10
268.06640000000004
20
-15
0
LWPOLYLINE
5
371
100
AcDbEntity
8
0
100
AcDbPolyline
90
4
70
1
43
0.0
10
301.19970000000001
20
0
10
298.19970000000001
20
0
10
298.19970000000001
20
-15
10
301.19970000000001
20
-15
0
LWPOLYLINE
5
372
100
AcDbEntity
8
0
100
AcDbPolyline
90
4
70
1
43
0.0
10
334.33299999999997
20
0
10
331.33299999999997
20
0
10
331.33299999999997
20
-15
10
334.33299999999997
20
-15
0
LWPOLYLINE
5
373
100
AcDbEntity
8
0
100
AcDbPolyline
90
4
70
1
43
0.0
10
367.46629999999993
20
0
10
364.46629999999999
20
0
10
364.46629999999999
20
-15
10
367.46629999999993
20
-15
0
LWPOLYLINE
5
374
100
AcDbEntity
8
0
100
AcDbPolyline
90
4
70
1
43
0.0
10
400.59959999999995
20
0
10
397.59960000000001
20
0
10
397.59960000000001
20
-15
10
400.59959999999995
20
-15
0
LWPOLYLINE
5
375
100
AcDbEntity
8
0
100
AcDbPolyline
90
4
70
1
43
0.0
10
433.73289999999997
20
0
10
430.73289999999997
20
0
10
430.73289999999997
20
-15
10
433.73289999999997
20
-15
0
LWPOLYLINE
5
376
100
AcDbEntity
8
0
100
AcDbPolyline
90
4
70
1
43
0.0
10
466.86619999999999
20
0
10
463.86619999999999
20
0
10
463.86619999999999
20
-15
10
466.86619999999999
20
-15
0
LWPOLYLINE
5
377
100
AcDbEntity
8
0
100
AcDbPolyline
90
4
70
1
43
0.0
10
499.99950000000001
20
0
10
496.99950000000001
20
0
10
496.99950000000001
20
-15
10
499.99950000000001
20
-15
0
ENDSEC
0
SECTION
2
OBJECTS
0
DICTIONARY
5
C
100
AcDbDictionary
3
ACAD_GROUP
350
D
3
ACAD_MLINESTYLE
350
17
0
DICTIONARY
5
D
100
AcDbDictionary
0
DICTIONARY
5
1A
330
C
100
AcDbDictionary
0
DICTIONARY
5
17
100
AcDbDictionary
0
ENDSEC
0
EOF
