0
SECTION
2
HEADER
9
$INSUNITS
70
4
9
$ACADVER
1
AC1014
9
$HANDSEED
5
FFFF
0
ENDSEC
0
SECTION
2
TABLES
0
TABLE
2
VPORT
5
8
100
AcDbSymbolTable
0
ENDTAB
0
TABLE
2
LTYPE
5
5
100
AcDbSymbolTable
0
LTYPE
5
14
100
AcDbSymbolTableRecord
100
AcDbLinetypeTableRecord
2
BYBLOCK
70
0
0
LTYPE
5
15
100
AcDbSymbolTableRecord
100
AcDbLinetypeTableRecord
2
BYLAYER
70
0
0
ENDTAB
0
TABLE
2
LAYER
5
2
100
AcDbSymbolTable
70
2
0
LAYER
5
50
100
AcDbSymbolTableRecord
100
AcDbLayerTableRecord
2
0
70
0
6
CONTINUOUS
0
ENDTAB
0
TABLE
2
STYLE
5
3
100
AcDbSymbolTable
70
1
0
STYLE
5
11
100
AcDbSymbolTableRecord
100
AcDbTextStyleTableRecord
2
STANDARD
70
0
0
ENDTAB
0
TABLE
2
VIEW
5
6
100
AcDbSymbolTable
70
0
0
ENDTAB
0
TABLE
2
UCS
5
7
100
AcDbSymbolTable
70
0
0
ENDTAB
0
TABLE
2
APPID
5
9
100
AcDbSymbolTable
70
2
0
APPID
5
12
100
AcDbSymbolTableRecord
100
AcDbRegAppTableRecord
2
ACAD
70
0
0
ENDTAB
0
TABLE
2
DIMSTYLE
5
A
100
AcDbSymbolTable
70
1
0
ENDTAB
0
TABLE
2
BLOCK_RECORD
5
1
100
AcDbSymbolTable
70
1
0
BLOCK_RECORD
5
1F
100
AcDbSymbolTableRecord
100
AcDbBlockTableRecord
2
*MODEL_SPACE
0
BLOCK_RECORD
5
1B
100
AcDbSymbolTableRecord
100
AcDbBlockTableRecord
2
*PAPER_SPACE
0
ENDTAB
0
ENDSEC
0
SECTION
2
BLOCKS
0
BLOCK
5
20
100
AcDbEntity
100
AcDbBlockBegin
2
*MODEL_SPACE
0
ENDBLK
5
21
100
AcDbEntity
100
AcDbBlockEnd
0
BLOCK
5
1C
100
AcDbEntity
100
AcDbBlockBegin
2
*PAPER_SPACE
0
ENDBLK
5
1D
100
AcDbEntity
100
AcDbBlockEnd
0
ENDSEC
0
SECTION
2
ENTITIES
0
LINE
5
100
100
AcDbEntity
8
0
100
AcDbLine
10
0
20
51.000000759959221
30
0
11
0
21
44.000000655651093
31
0
0
LINE
5
101
100
AcDbEntity
8
0
100
AcDbLine
10
5.000000074505806
20
23.000000342726707
30
0
11
11.223160361295704
21
33.455746692497158
31
0
0
LINE
5
102
100
AcDbEntity
8
0
100
AcDbLine
10
0
20
-50
30
0
11
0
21
75
31
0
0
LINE
5
103
100
AcDbEntity
8
0
100
AcDbLine
10
5.000000074505806
20
23.000000342726707
30
0
11
0
21
23.000000342726707
31
0
0
LINE
5
104
100
AcDbEntity
8
0
100
AcDbLine
10
4.2026438721472736
20
24.403000342726706
30
0
11
0
21
24.403000342726706
31
0
0
LINE
5
105
100
AcDbEntity
8
0
100
AcDbLine
10
4.2026438721472736
20
24.403000342726706
30
0
11
9.1838683360487625
21
32.772128290263147
31
0
0
LINE
5
106
100
AcDbEntity
8
0
100
AcDbLine
10
9.1838683360487625
20
32.772128290263147
30
0
11
0
21
36.889863918915317
31
0
0
LINE
5
107
100
AcDbEntity
8
0
100
AcDbLine
10
9.9086202140407416
20
33.98956985505972
30
0
11
9.405337657652197
21
34.197580119890787
31
0
0
LINE
5
108
100
AcDbEntity
8
0
100
AcDbLine
10
9.9086202140407416
20
33.98956985505972
30
0
11
11.197051797390415
21
33.411880733886939
31
0
0
LINE
5
109
100
AcDbEntity
8
0
100
AcDbLine
10
-9.1838683360487625
20
32.77212829026314
30
0
11
0
21
36.889863918915317
31
0
0
LINE
5
110
100
AcDbEntity
8
0
100
AcDbLine
10
-4.2026438721472736
20
24.403000342726706
30
0
11
-9.1838683360487625
21
32.77212829026314
31
0
0
LINE
5
111
100
AcDbEntity
8
0
100
AcDbLine
10
-4.2026438721472736
20
24.403000342726706
30
0
11
0
21
24.403000342726706
31
0
0
LINE
5
112
100
AcDbEntity
8
0
100
AcDbLine
10
-5.000000074505806
20
23.000000342726707
30
0
11
0
21
23.000000342726707
31
0
0
LINE
5
113
100
AcDbEntity
8
0
100
AcDbLine
10
-5.000000074505806
20
23.000000342726707
30
0
11
-11.223160361295701
21
33.455746692497151
31
0
0
LINE
5
114
100
AcDbEntity
8
0
100
AcDbLine
10
25.96159501974201
20
28.396488775850401
30
0
11
20.49641162514807
21
21.066454587439658
31
0
0
LINE
5
115
100
AcDbEntity
8
0
100
AcDbLine
10
20.49641162514807
20
21.066454587439658
30
0
11
23.22900332242898
21
16.287035478428862
31
0
0
LINE
5
116
100
AcDbEntity
8
0
100
AcDbLine
10
23.22900332242898
20
16.287035478428862
30
0
11
31.826750389887803
21
18.019244234210852
31
0
0
LINE
5
117
100
AcDbEntity
8
0
100
AcDbLine
10
20.73461640471503
20
-16.274041711727531
30
0
11
13.000000193715096
21
-14.000000208616257
31
0
0
LINE
5
118
100
AcDbEntity
8
0
100
AcDbLine
10
13.000000193715096
20
-14.000000208616257
30
0
11
8.0000001192092896
21
-19.000000283122063
31
0
0
LINE
5
119
100
AcDbEntity
8
0
100
AcDbLine
10
13.5174902132276
20
-24.977845626077638
30
0
11
8.7788820386115685
21
-18.221118363719782
31
0
0
LINE
5
120
100
AcDbEntity
8
0
100
AcDbLine
10
6.7381926703734347
20
-31.679621361690756
30
0
11
2.5149719208308841
21
-22.84256997679709
31
0
0
LINE
5
121
100
AcDbEntity
8
0
100
AcDbLine
10
2.5149719208308841
20
-22.84256997679709
30
0
11
0
21
-22.84256997679709
31
0
0
LINE
5
122
100
AcDbEntity
8
0
100
AcDbLine
10
-6.7381926703206414
20
-31.679621361739208
30
0
11
-2.5149719208308841
21
-22.84256997679709
31
0
0
LINE
5
123
100
AcDbEntity
8
0
100
AcDbLine
10
-2.5149719208308841
20
-22.84256997679709
30
0
11
0
21
-22.84256997679709
31
0
0
LINE
5
124
100
AcDbEntity
8
0
100
AcDbLine
10
-13.51749090491049
20
-24.977844884889635
30
0
11
-8.7788820386115685
21
-18.221118363719782
31
0
0
LINE
5
125
100
AcDbEntity
8
0
100
AcDbLine
10
-13.000000193715096
20
-14.000000208616257
30
0
11
-8.0000001192092896
21
-19.000000283122063
31
0
0
LINE
5
126
100
AcDbEntity
8
0
100
AcDbLine
10
-20.734616404768481
20
-16.274041711653673
30
0
11
-13.000000193715096
21
-14.000000208616257
31
0
0
LINE
5
127
100
AcDbEntity
8
0
100
AcDbLine
10
-25.961595019741996
20
28.396488775850397
30
0
11
-20.49641162514807
21
21.066454587439658
31
0
0
LINE
5
128
100
AcDbEntity
8
0
100
AcDbLine
10
-20.49641162514807
20
21.066454587439658
30
0
11
-23.22900332242898
21
16.287035478428862
31
0
0
LINE
5
129
100
AcDbEntity
8
0
100
AcDbLine
10
-23.22900332242898
20
16.287035478428862
30
0
11
-31.82675040331884
21
18.019243607201069
31
0
0
SPLINE
5
130
100
AcDbEntity
8
0
100
AcDbSpline
70
1064
71
5
72
12
73
6
74
0
42
0.000000001
43
0.0000000001
44
0.0000000001
40
0.90092272924897954
40
0.90092272924897954
40
0.90092272924897954
40
0.90092272924897954
40
0.90092272924897954
40
0.90092272924897954
40
1
40
1
40
1
40
1
40
1
40
1
10
-6.7381926703206414
20
-31.679621361739208
30
0
10
-5.4583543440965414
20
-32.85423861527034
30
0
10
-4.1442142236472685
20
-34.023522707893648
30
0
10
-2.7963046084221226
20
-35.187556400254103
30
0
10
-1.4149005914647252
20
-36.346382463160019
30
0
10
0
20
-37.500000558793545
30
0
0
SPLINE
5
131
100
AcDbEntity
8
0
100
AcDbSpline
70
1064
71
5
72
13
73
7
74
0
42
0.000000001
43
0.0000000001
44
0.0000000001
40
0
40
0
40
0
40
0
40
0
40
0
40
0.10000000000000001
40
0.12770110147995087
40
0.12770110147995087
40
0.12770110147995087
40
0.12770110147995087
40
0.12770110147995087
40
0.12770110147995087
10
-31.000000461935997
20
27.000000402331352
30
0
10
-31.227941844385843
20
25.578164484026537
30
0
10
-31.470109548485922
20
23.770069690313061
30
0
10
-31.649809366398785
20
21.971687254103767
30
0
10
-31.766389739831592
20
20.183118478123411
30
0
10
-31.818496323451491
20
18.404573932744501
30
0
10
-31.826750403318847
20
18.019243607201066
30
0
0
SPLINE
5
132
100
AcDbEntity
8
0
100
AcDbSpline
70
1064
71
5
72
13
73
7
74
0
42
0.000000001
43
0.0000000001
44
0.0000000001
40
0.64729088977347471
40
0.64729088977347471
40
0.64729088977347471
40
0.64729088977347471
40
0.64729088977347471
40
0.64729088977347471
40
0.69999999999999996
40
0.78903832133711904
40
0.78903832133711904
40
0.78903832133711904
40
0.78903832133711904
40
0.78903832133711904
40
0.78903832133711904
10
-20.734616404768481
20
-16.274041711653673
30
0
10
-20.259287889997783
20
-16.930895839555532
30
0
10
-18.948965882457184
20
-18.692351024598018
30
0
10
-17.553798141609114
20
-20.440614597998156
30
0
10
-16.077473499508734
20
-22.176260090539166
30
0
10
-14.52350063455723
20
-23.899833023145124
30
0
10
-13.517490904910492
20
-24.977844884889635
30
0
0
SPLINE
5
133
100
AcDbEntity
8
0
100
AcDbSpline
70
1064
71
5
72
13
73
7
74
0
42
0.000000001
43
0.0000000001
44
0.0000000001
40
0.84430756464085077
40
0.84430756464085077
40
0.84430756464085077
40
0.84430756464085077
40
0.84430756464085077
40
0.84430756464085077
40
0.89999999999999991
40
1
40
1
40
1
40
1
40
1
40
1
10
-25.961595019741996
20
28.396488775850397
30
0
10
-26.320081775897698
20
28.291903525991913
30
0
10
-27.323269788123596
20
28.001929850525368
30
0
10
-28.329249918162724
20
27.718590527669534
30
0
10
-29.337939854707891
20
27.44168997748406
30
0
10
-30.34930504556911
20
27.17114610049218
30
0
10
-31.000000461935997
20
27.000000402331352
30
0
0
SPLINE
5
134
100
AcDbEntity
8
0
100
AcDbSpline
70
1064
71
5
72
13
73
7
74
0
42
0.000000001
43
0.0000000001
44
0.0000000001
40
0
40
0
40
0
40
0
40
0
40
0
40
0.10000000000000001
40
0.12770109246490036
40
0.12770109246490036
40
0.12770109246490036
40
0.12770109246490036
40
0.12770109246490036
40
0.12770109246490036
10
31.000000461935997
20
27.000000402331352
30
0
10
31.227941844385843
20
25.578164484026537
30
0
10
31.470109531390101
20
23.770069817955388
30
0
10
31.649809341026991
20
21.971687508017133
30
0
10
31.766389715141639
20
20.18311885691508
30
0
10
31.818496308737654
20
18.404574434969415
30
0
10
31.826750389887799
20
18.019244234210845
30
0
0
SPLINE
5
135
100
AcDbEntity
8
0
100
AcDbSpline
70
1064
71
5
72
13
73
7
74
0
42
0.000000001
43
0.0000000001
44
0.0000000001
40
0.64729088977465998
40
0.64729088977465998
40
0.64729088977465998
40
0.64729088977465998
40
0.64729088977465998
40
0.64729088977465998
40
0.69999999999999996
40
0.78903833358079445
40
0.78903833358079445
40
0.78903833358079445
40
0.78903833358079445
40
0.78903833358079445
40
0.78903833358079445
10
20.73461640471503
20
-16.274041711727531
30
0
10
20.259287889953953
20
-16.930895839614447
30
0
10
18.948965769240893
20
-18.692351176790559
30
0
10
17.553797900564451
20
-20.440614900045659
30
0
10
16.077473116935586
20
-22.176260540311567
30
0
10
14.52350009764903
20
-23.899833618651293
30
0
10
13.5174902132276
20
-24.977845626077642
30
0
0
SPLINE
5
136
100
AcDbEntity
8
0
100
AcDbSpline
70
1064
71
5
72
12
73
6
74
0
42
0.000000001
43
0.0000000001
44
0.0000000001
40
0.90092272924816219
40
0.90092272924816219
40
0.90092272924816219
40
0.90092272924816219
40
0.90092272924816219
40
0.90092272924816219
40
1
40
1
40
1
40
1
40
1
40
1
10
6.7381926703734347
20
-31.679621361690756
30
0
10
5.4583543441399058
20
-32.854238615231758
30
0
10
4.1442142236806276
20
-34.023522707864842
30
0
10
2.7963046084449141
20
-35.187556400234982
30
0
10
1.4149005914763977
20
-36.346382463150505
30
0
10
0
20
-37.500000558793545
30
0
0
SPLINE
5
137
100
AcDbEntity
8
0
100
AcDbSpline
70
1064
71
5
72
13
73
7
74
0
42
0.000000001
43
0.0000000001
44
0.0000000001
40
0.84430756464085099
40
0.84430756464085099
40
0.84430756464085099
40
0.84430756464085099
40
0.84430756464085099
40
0.84430756464085099
40
0.89999999999999991
40
1
40
1
40
1
40
1
40
1
40
1
10
25.96159501974201
20
28.396488775850401
30
0
10
26.320081775897709
20
28.291903525991913
30
0
10
27.323269788123604
20
28.001929850525368
30
0
10
28.329249918162731
20
27.718590527669534
30
0
10
29.337939854707891
20
27.44168997748406
30
0
10
30.34930504556911
20
27.17114610049218
30
0
10
31.000000461935997
20
27.000000402331352
30
0
0
SPLINE
5
138
100
AcDbEntity
8
0
100
AcDbSpline
70
1064
71
5
72
15
73
9
74
0
42
0.000000001
43
0.0000000001
44
0.0000000001
40
0.0089887157277485658
40
0.0089887157277485658
40
0.0089887157277485658
40
0.0089887157277485658
40
0.0089887157277485658
40
0.0089887157277485658
40
0.10000000000000001
40
0.20000000000000001
40
0.30000000000000004
40
0.37752699026107367
40
0.37752699026107367
40
0.37752699026107367
40
0.37752699026107367
40
0.37752699026107367
40
0.37752699026107367
10
-1.8667632553041186e-06
20
38.432258764233595
30
0
10
-0.54648825914886312
20
38.167861876352084
30
0
10
-1.6953598736311433
20
37.617529412209272
30
0
10
-3.4518634175598994
20
36.793728075905008
30
0
10
-5.6884048957805362
20
35.779202483918482
30
0
10
-7.941269831557042
20
34.80346306803807
30
0
10
-9.6478046633694685
20
34.092491897042045
30
0
10
-10.74372997097926
20
33.647914533737584
30
0
10
-11.223160361295703
20
33.455746692497151
30
0
0
SPLINE
5
139
100
AcDbEntity
8
0
100
AcDbSpline
70
1064
71
5
72
15
73
9
74
0
42
0.000000001
43
0.0000000001
44
0.0000000001
40
0.0089886906031180231
40
0.0089886906031180231
40
0.0089886906031180231
40
0.0089886906031180231
40
0.0089886906031180231
40
0.0089886906031180231
40
0.10000000000000001
40
0.20000000000000001
40
0.30000000000000004
40
0.33493244528029686
40
0.33493244528029686
40
0.33493244528029686
40
0.33493244528029686
40
0.33493244528029686
40
0.33493244528029686
10
1.112446425099306e-06
20
38.432259129181425
30
0
10
0.54648765468248439
20
38.167862165903571
30
0
10
1.6953594186848409
20
37.617529625579394
30
0
10
3.4518631126131289
20
36.793728214233006
30
0
10
5.4299120071624607
20
35.896458366348767
30
0
10
7.4207291784237466
20
35.029527227492714
30
0
10
8.8627585484183005
20
34.42152502911982
30
0
10
9.6934099856242568
20
34.078090822391822
30
0
10
9.9086202140407416
20
33.989569855059713
30
0
0
CIRCLE
5
140
100
AcDbEntity
8
0
100
AcDbCircle
10
25.380348006818547
20
20.522230781871276
30
0
40
1.3397695057294023
0
CIRCLE
5
141
100
AcDbEntity
8
0
100
AcDbCircle
10
14.000000208616257
20
-18.500000275671482
30
0
40
1.3397695057294023
0
CIRCLE
5
142
100
AcDbEntity
8
0
100
AcDbCircle
10
0
20
-30.786353070303569
30
0
40
1.3098444538758378
0
CIRCLE
5
143
100
AcDbEntity
8
0
100
AcDbCircle
10
-25.380348006818547
20
20.522230781871276
30
0
40
1.3397695057294023
0
CIRCLE
5
144
100
AcDbEntity
8
0
100
AcDbCircle
10
-14.000000208616257
20
-18.500000275671482
30
0
40
1.3397695057294023
0
LINE
5
145
100
AcDbEntity
8
0
100
AcDbLine
10
-29.099999349564314
20
5.599999874830246
30
0
11
29.099999349564314
21
5.599999874830246
31
0
0
CIRCLE
5
146
100
AcDbEntity
8
0
100
AcDbCircle
10
0
20
5.599999874830246
30
0
40
1
0
ENDSEC
0
SECTION
2
OBJECTS
0
DICTIONARY
5
C
100
AcDbDictionary
3
ACAD_GROUP
350
D
3
ACAD_MLINESTYLE
350
17
0
DICTIONARY
5
D
100
AcDbDictionary
0
DICTIONARY
5
1A
330
C
100
AcDbDictionary
0
DICTIONARY
5
17
100
AcDbDictionary
0
ENDSEC
0
EOF
