0
SECTION
2
HEADER
9
$INSUNITS
70
4
9
$ACADVER
1
AC1014
9
$HANDSEED
5
FFFF
0
ENDSEC
0
SECTION
2
TABLES
0
TABLE
2
VPORT
5
8
100
AcDbSymbolTable
0
ENDTAB
0
TABLE
2
LTYPE
5
5
100
AcDbSymbolTable
0
LTYPE
5
14
100
AcDbSymbolTableRecord
100
AcDbLinetypeTableRecord
2
BYBLOCK
70
0
0
LTYPE
5
15
100
AcDbSymbolTableRecord
100
AcDbLinetypeTableRecord
2
BYLAYER
70
0
0
ENDTAB
0
TABLE
2
LAYER
5
2
100
AcDbSymbolTable
70
2
0
LAYER
5
50
100
AcDbSymbolTableRecord
100
AcDbLayerTableRecord
2
0
70
0
6
CONTINUOUS
0
ENDTAB
0
TABLE
2
STYLE
5
3
100
AcDbSymbolTable
70
1
0
STYLE
5
11
100
AcDbSymbolTableRecord
100
AcDbTextStyleTableRecord
2
STANDARD
70
0
0
ENDTAB
0
TABLE
2
VIEW
5
6
100
AcDbSymbolTable
70
0
0
ENDTAB
0
TABLE
2
UCS
5
7
100
AcDbSymbolTable
70
0
0
ENDTAB
0
TABLE
2
APPID
5
9
100
AcDbSymbolTable
70
2
0
APPID
5
12
100
AcDbSymbolTableRecord
100
AcDbRegAppTableRecord
2
ACAD
70
0
0
ENDTAB
0
TABLE
2
DIMSTYLE
5
A
100
AcDbSymbolTable
70
1
0
ENDTAB
0
TABLE
2
BLOCK_RECORD
5
1
100
AcDbSymbolTable
70
1
0
BLOCK_RECORD
5
1F
100
AcDbSymbolTableRecord
100
AcDbBlockTableRecord
2
*MODEL_SPACE
0
BLOCK_RECORD
5
1B
100
AcDbSymbolTableRecord
100
AcDbBlockTableRecord
2
*PAPER_SPACE
0
ENDTAB
0
ENDSEC
0
SECTION
2
BLOCKS
0
BLOCK
5
20
100
AcDbEntity
100
AcDbBlockBegin
2
*MODEL_SPACE
0
ENDBLK
5
21
100
AcDbEntity
100
AcDbBlockEnd
0
BLOCK
5
1C
100
AcDbEntity
100
AcDbBlockBegin
2
*PAPER_SPACE
0
ENDBLK
5
1D
100
AcDbEntity
100
AcDbBlockEnd
0
ENDSEC
0
SECTION
2
ENTITIES
0
SPLINE
5
100
100
AcDbEntity
8
0
100
AcDbSpline
70
1064
71
5
72
21
73
15
74
0
42
0.000000001
43
0.0000000001
44
0.0000000001
40
0
40
0
40
0
40
0
40
0
40
0
40
0.10000000000000001
40
0.20000000000000001
40
0.30000000000000004
40
0.40000000000000002
40
0.5
40
0.59999999999999998
40
0.69999999999999996
40
0.79999999999999993
40
0.89999999999999991
40
1
40
1
40
1
40
1
40
1
40
1
10
-0.26977689411105121
20
38.563036943922988
30
0
10
0.33028501945907884
20
38.271580953047028
30
0
10
1.5326232874922721
20
37.693930705468119
30
0
10
3.3427738189919691
20
36.84324007748782
30
0
10
5.7698143742183907
20
35.741078740046021
30
0
10
8.8276518850614707
20
34.420490961341144
30
0
10
11.911667346603132
20
33.162104625098749
30
0
10
15.023986101025908
20
31.970969758003989
30
0
10
18.165748367407272
20
30.84979563521205
30
0
10
21.335764962413549
20
29.795756637579501
30
0
10
24.531893978144712
20
28.80376337661766
30
0
10
27.107968254490821
20
28.055721142575202
30
0
10
29.05012157717745
20
27.51868241639319
30
0
10
30.34930504556911
20
27.17114610049218
30
0
10
31.000000461935997
20
27.000000402331352
30
0
0
SPLINE
5
101
100
AcDbEntity
8
0
100
AcDbSpline
70
1064
71
5
72
21
73
15
74
0
42
0.000000001
43
0.0000000001
44
0.0000000001
40
0
40
0
40
0
40
0
40
0
40
0
40
0.10000000000000001
40
0.20000000000000001
40
0.30000000000000004
40
0.40000000000000002
40
0.5
40
0.59999999999999998
40
0.69999999999999996
40
0.79999999999999993
40
0.89999999999999991
40
1
40
1
40
1
40
1
40
1
40
1
10
31.000000461935997
20
27.000000402331352
30
0
10
31.227941844385843
20
25.578164484026537
30
0
10
31.607214538659502
20
22.746403797925723
30
0
10
31.946287199295046
20
18.534497179426136
30
0
10
31.931202344798844
20
12.991257986679637
30
0
10
31.08322541331178
20
6.1911187241051424
30
0
10
29.341171816830002
20
-0.47001163746147157
30
0
10
26.646458828818322
20
-6.9830247958403522
30
0
10
22.993453129248635
20
-13.34704489590715
30
0
10
18.444862292370427
20
-19.57182156129123
30
0
10
13.079665698182662
20
-25.669634317053994
30
0
10
8.1931232810056223
20
-30.455470941729274
30
0
10
4.2159868466505621
20
-33.99630369561897
30
0
10
1.428077883796727
20
-36.335638554381305
30
0
10
0
20
-37.500000558793545
30
0
0
LINE
5
102
100
AcDbEntity
8
0
100
AcDbLine
10
0
20
-55
30
0
11
0
21
-65
31
0
0
SPLINE
5
103
100
AcDbEntity
8
0
100
AcDbSpline
70
1064
71
5
72
21
73
15
74
0
42
0.000000001
43
0.0000000001
44
0.0000000001
40
0
40
0
40
0
40
0
40
0
40
0
40
0.10000000000000001
40
0.20000000000000001
40
0.30000000000000004
40
0.40000000000000002
40
0.5
40
0.59999999999999998
40
0.69999999999999996
40
0.79999999999999993
40
0.89999999999999991
40
1
40
1
40
1
40
1
40
1
40
1
10
-31.000000461935997
20
27.000000402331352
30
0
10
-31.227941844385988
20
25.57816448402658
30
0
10
-31.607214538659907
20
22.746403797925836
30
0
10
-31.946287199295732
20
18.534497179426317
30
0
10
-31.931202344799669
20
12.991257986679852
30
0
10
-31.083225413312476
20
6.1911187241053227
30
0
10
-29.34117181683029
20
-0.47001163746140895
30
0
10
-26.646458828818144
20
-6.9830247958403984
30
0
10
-22.993453129248106
20
-13.347044895907247
30
0
10
-18.444862292369738
20
-19.571821561291319
30
0
10
-13.079665698181994
20
-25.669634317054051
30
0
10
-8.193123281005132
20
-30.45547094172931
30
0
10
-4.2159868466502868
20
-33.996303695618977
30
0
10
-1.4280778837966297
20
-36.335638554381305
30
0
10
0
20
-37.500000558793545
30
0
0
SPLINE
5
104
100
AcDbEntity
8
0
100
AcDbSpline
70
1064
71
5
72
21
73
15
74
0
42
0.000000001
43
0.0000000001
44
0.0000000001
40
0
40
0
40
0
40
0
40
0
40
0
40
0.10000000000000001
40
0.20000000000000001
40
0.30000000000000004
40
0.40000000000000002
40
0.5
40
0.59999999999999998
40
0.69999999999999996
40
0.79999999999999993
40
0.89999999999999991
40
1
40
1
40
1
40
1
40
1
40
1
10
0.26977689411105121
20
38.563036943922988
30
0
10
-0.33028501945907884
20
38.271580953047028
30
0
10
-1.5326232874922721
20
37.693930705468119
30
0
10
-3.3427738189919691
20
36.84324007748782
30
0
10
-5.7698143742183907
20
35.741078740046021
30
0
10
-8.8276518850614707
20
34.420490961341144
30
0
10
-11.911667346603132
20
33.162104625098749
30
0
10
-15.023986101025908
20
31.970969758003989
30
0
10
-18.165748367407272
20
30.84979563521205
30
0
10
-21.335764962413549
20
29.795756637579501
30
0
10
-24.531893978144712
20
28.80376337661766
30
0
10
-27.107968254490821
20
28.055721142575202
30
0
10
-29.05012157717745
20
27.51868241639319
30
0
10
-30.34930504556911
20
27.17114610049218
30
0
10
-31.000000461935997
20
27.000000402331352
30
0
0
LINE
5
105
100
AcDbEntity
8
0
100
AcDbLine
10
0
20
-50
30
0
11
0
21
75
31
0
0
CIRCLE
5
106
100
AcDbEntity
8
0
100
AcDbCircle
10
13.850114982763595
20
29.550138908319067
30
0
40
0.73494153405807505
0
CIRCLE
5
107
100
AcDbEntity
8
0
100
AcDbCircle
10
29.099999349564314
20
5.599999874830246
30
0
40
0.80622575680930464
0
CIRCLE
5
108
100
AcDbEntity
8
0
100
AcDbCircle
10
23.69999947026372
20
-7.9999998211860657
30
0
40
0.82462110669181365
0
CIRCLE
5
109
100
AcDbEntity
8
0
100
AcDbCircle
10
-13.850114982763595
20
29.55013890831907
30
0
40
0.73494153405807505
0
CIRCLE
5
110
100
AcDbEntity
8
0
100
AcDbCircle
10
-23.69999947026372
20
-7.9999998211860657
30
0
40
0.82462110669181365
0
CIRCLE
5
111
100
AcDbEntity
8
0
100
AcDbCircle
10
-29.099999349564314
20
5.599999874830246
30
0
40
0.80622575680930464
0
LINE
5
112
100
AcDbEntity
8
0
100
AcDbLine
10
-3.3833381494344161
20
40.075324360106784
30
0
11
2.8437843612123137
21
37.050749527739193
31
0
0
LINE
5
113
100
AcDbEntity
8
0
100
AcDbLine
10
3.3833381494344161
20
40.075324360106777
30
0
11
-2.8437843612123137
21
37.0507495277392
31
0
0
LINE
5
114
100
AcDbEntity
8
0
100
AcDbLine
10
22.303162422567947
20
23.960058040219216
30
0
11
27.381259250953029
21
22.412143942331436
31
0
0
LINE
5
115
100
AcDbEntity
8
0
100
AcDbLine
10
27.381259250953029
20
22.412143942331436
30
0
11
28.121092377745967
21
17.168845915465788
31
0
0
LINE
5
116
100
AcDbEntity
8
0
100
AcDbLine
10
-22.303162422567947
20
23.960058040219216
30
0
11
-27.381259250953029
21
22.412143942331433
31
0
0
LINE
5
117
100
AcDbEntity
8
0
100
AcDbLine
10
-27.381259250953029
20
22.412143942331433
30
0
11
-28.121092377745967
21
17.168845915465791
31
0
0
SPLINE
5
118
100
AcDbEntity
8
0
100
AcDbSpline
70
1064
71
3
72
17
73
13
74
0
42
0.000000001
43
0.0000000001
44
0.0000000001
40
0
40
0
40
0
40
0
40
0.23327940873435349
40
0.23327940873435349
40
0.23327940873435349
40
0.92490535922387296
40
0.92490535922387296
40
0.92490535922387296
40
1.1324428419017711
40
1.1324428419017711
40
1.1324428419017711
40
1.3474895623432221
40
1.3474895623432221
40
1.3474895623432221
40
1.3474895623432221
10
1.3877787807814457e-16
20
32.294886360014956
30
0
10
0.72049078218154583
20
32.002394090588574
30
0
10
1.4409815643630912
20
31.709901821162187
30
0
10
2.1614723465446368
20
31.417409551735801
30
0
10
4.297580821565246
20
30.550229525215652
30
0
10
6.4336892965858539
20
29.68304949869551
30
0
10
8.5697977716064617
20
28.815869472175365
30
0
10
10.77512671614606
20
27.92058852789043
30
0
10
13.003154781784815
20
27.071515103238166
30
0
10
15.255394724939498
20
26.274863684184528
30
0
10
17.589126478708302
20
25.449387376040224
30
0
10
19.938883860266849
20
24.680741446148595
30
0
10
22.303162422567947
20
23.960058040219216
30
0
0
SPLINE
5
119
100
AcDbEntity
8
0
100
AcDbSpline
70
1064
71
3
72
17
73
13
74
0
42
0.000000001
43
0.0000000001
44
0.0000000001
40
0
40
0
40
0
40
0
40
0.23327940873435646
40
0.23327940873435646
40
0.23327940873435646
40
0.92490535922387296
40
0.92490535922387296
40
0.92490535922387296
40
1.1324428419017711
40
1.1324428419017711
40
1.1324428419017711
40
1.3474895623432221
40
1.3474895623432221
40
1.3474895623432221
40
1.3474895623432221
10
1.3877787807814457e-16
20
32.294886360014949
30
0
10
-0.72049078218155449
20
32.00239409058856
30
0
10
-1.440981564363109
20
31.70990182116217
30
0
10
-2.1614723465446639
20
31.41740955173578
30
0
10
-4.2975808215652638
20
30.550229525215642
30
0
10
-6.4336892965858627
20
29.6830494986955
30
0
10
-8.5697977716064617
20
28.815869472175358
30
0
10
-10.77512671614606
20
27.92058852789043
30
0
10
-13.003154781784815
20
27.071515103238166
30
0
10
-15.255394724939498
20
26.274863684184528
30
0
10
-17.589126478708302
20
25.449387376040224
30
0
10
-19.938883860266849
20
24.680741446148595
30
0
10
-22.303162422567947
20
23.960058040219216
30
0
0
SPLINE
5
120
100
AcDbEntity
8
0
100
AcDbSpline
70
1064
71
5
72
26
73
20
74
0
42
0.000000001
43
0.0000000001
44
0.0000000001
40
0
40
0
40
0
40
0
40
0
40
0
40
0.10000000000000001
40
0.20000000000000001
40
0.30000000000000004
40
0.40000000000000002
40
0.5
40
0.59999999999999998
40
0.69999999999999996
40
0.79999999999999993
40
0.89999999999999991
40
1
40
1
40
1
40
1
40
1
40
1.4861951376259352
40
1.4861951376259352
40
1.4861951376259352
40
1.4861951376259352
40
1.4861951376259352
40
1.4861951376259352
10
28.121092377745967
20
17.168845915465788
30
0
10
28.030579771201221
20
16.014149715000404
30
0
10
27.815675066305605
20
13.728212130107835
30
0
10
27.391684206625449
20
10.369666965703026
30
0
10
26.619710904109347
20
6.0346723018218293
30
0
10
25.286648516955044
20
0.87076214248036898
30
0
10
23.551450210494984
20
-4.0147487993029749
30
0
10
21.379469907526882
20
-8.597874999421542
30
0
10
18.748567463240985
20
-12.863288806955762
30
0
10
15.67256915462597
20
-16.820562171362734
30
0
10
12.183293956678705
20
-20.4917234102262
30
0
10
9.0874717795757043
20
-23.217914489637298
30
0
10
6.6051297214619344
20
-25.151460454505493
30
0
10
4.8800707989667371
20
-26.391916319422069
30
0
10
4.0000000596046448
20
-27.000000402331352
30
0
10
3.2000000476837167
20
-27.552759688396197
30
0
10
2.4000000357627878
20
-28.105518974461049
30
0
10
1.6000000238418588
20
-28.658278260525897
30
0
10
0.80000001192092984
20
-29.211037546590749
30
0
10
8.3266726846886741e-16
20
-29.763796832655597
30
0
0
LINE
5
121
100
AcDbEntity
8
0
100
AcDbLine
10
8.891208939036245
20
-23.620424042455138
30
0
11
-0.89120881982695521
21
-30.379576762207567
31
0
0
SPLINE
5
122
100
AcDbEntity
8
0
100
AcDbSpline
70
1064
71
5
72
26
73
20
74
0
42
0.000000001
43
0.0000000001
44
0.0000000001
40
0
40
0
40
0
40
0
40
0
40
0
40
0.10000000000000001
40
0.20000000000000001
40
0.30000000000000004
40
0.40000000000000002
40
0.5
40
0.59999999999999998
40
0.69999999999999996
40
0.79999999999999993
40
0.89999999999999991
40
1
40
1
40
1
40
1
40
1
40
1.4861951376259352
40
1.4861951376259352
40
1.4861951376259352
40
1.4861951376259352
40
1.4861951376259352
40
1.4861951376259352
10
-28.121092377745967
20
17.168845915465788
30
0
10
-28.030579771201221
20
16.014149715000404
30
0
10
-27.815675066305605
20
13.728212130107835
30
0
10
-27.391684206625449
20
10.369666965703026
30
0
10
-26.619710904109347
20
6.0346723018218293
30
0
10
-25.286648516955044
20
0.87076214248036898
30
0
10
-23.551450210494984
20
-4.0147487993029749
30
0
10
-21.379469907526882
20
-8.597874999421542
30
0
10
-18.748567463240985
20
-12.863288806955762
30
0
10
-15.67256915462597
20
-16.820562171362734
30
0
10
-12.183293956678705
20
-20.4917234102262
30
0
10
-9.0874717795757043
20
-23.217914489637298
30
0
10
-6.6051297214619344
20
-25.151460454505493
30
0
10
-4.8800707989667371
20
-26.391916319422069
30
0
10
-4.0000000596046448
20
-27.000000402331352
30
0
10
-3.2000000476837167
20
-27.552759688396197
30
0
10
-2.4000000357627878
20
-28.105518974461049
30
0
10
-1.6000000238418588
20
-28.658278260525897
30
0
10
-0.80000001192092984
20
-29.211037546590749
30
0
10
-8.3266726846886741e-16
20
-29.763796832655597
30
0
0
LINE
5
123
100
AcDbEntity
8
0
100
AcDbLine
10
-8.891208939036245
20
-23.620424042455138
30
0
11
0.89120881982695521
21
-30.379576762207567
31
0
0
SPLINE
5
124
100
AcDbEntity
8
0
100
AcDbSpline
70
1064
71
5
72
21
73
15
74
0
42
0.000000001
43
0.0000000001
44
0.0000000001
40
0
40
0
40
0
40
0
40
0
40
0
40
0.10000000000000001
40
0.20000000000000001
40
0.30000000000000004
40
0.40000000000000002
40
0.5
40
0.59999999999999998
40
0.69999999999999996
40
0.79999999999999993
40
0.89999999999999991
40
1
40
1
40
1
40
1
40
1
40
1
10
31.000000461935997
20
27.000000402331352
30
0
10
31.227941844385843
20
25.578164484026537
30
0
10
31.607214538659502
20
22.746403797925723
30
0
10
31.946287199295046
20
18.534497179426136
30
0
10
31.931202344798844
20
12.991257986679637
30
0
10
31.08322541331178
20
6.1911187241051424
30
0
10
29.341171816830002
20
-0.47001163746147157
30
0
10
26.646458828818322
20
-6.9830247958403522
30
0
10
22.993453129248635
20
-13.34704489590715
30
0
10
18.444862292370427
20
-19.57182156129123
30
0
10
13.079665698182662
20
-25.669634317053994
30
0
10
8.1931232810056223
20
-30.455470941729274
30
0
10
4.2159868466505621
20
-33.99630369561897
30
0
10
1.428077883796727
20
-36.335638554381305
30
0
10
0
20
-37.500000558793545
30
0
0
SPLINE
5
125
100
AcDbEntity
8
0
100
AcDbSpline
70
1064
71
5
72
21
73
15
74
0
42
0.000000001
43
0.0000000001
44
0.0000000001
40
0
40
0
40
0
40
0
40
0
40
0
40
0.10000000000000001
40
0.20000000000000001
40
0.30000000000000004
40
0.40000000000000002
40
0.5
40
0.59999999999999998
40
0.69999999999999996
40
0.79999999999999993
40
0.89999999999999991
40
1
40
1
40
1
40
1
40
1
40
1
10
-0.26977689411105121
20
38.563036943922988
30
0
10
0.33028501945907884
20
38.271580953047028
30
0
10
1.5326232874922721
20
37.693930705468119
30
0
10
3.3427738189919691
20
36.84324007748782
30
0
10
5.7698143742183907
20
35.741078740046021
30
0
10
8.8276518850614707
20
34.420490961341144
30
0
10
11.911667346603132
20
33.162104625098749
30
0
10
15.023986101025908
20
31.970969758003989
30
0
10
18.165748367407272
20
30.84979563521205
30
0
10
21.335764962413549
20
29.795756637579501
30
0
10
24.531893978144712
20
28.80376337661766
30
0
10
27.107968254490821
20
28.055721142575202
30
0
10
29.05012157717745
20
27.51868241639319
30
0
10
30.34930504556911
20
27.17114610049218
30
0
10
31.000000461935997
20
27.000000402331352
30
0
0
ENDSEC
0
SECTION
2
OBJECTS
0
DICTIONARY
5
C
100
AcDbDictionary
3
ACAD_GROUP
350
D
3
ACAD_MLINESTYLE
350
17
0
DICTIONARY
5
D
100
AcDbDictionary
0
DICTIONARY
5
1A
330
C
100
AcDbDictionary
0
DICTIONARY
5
17
100
AcDbDictionary
0
ENDSEC
0
EOF
