0
SECTION
2
HEADER
9
$INSUNITS
70
4
9
$ACADVER
1
AC1014
9
$HANDSEED
5
FFFF
0
ENDSEC
0
SECTION
2
TABLES
0
TABLE
2
VPORT
5
8
100
AcDbSymbolTable
0
ENDTAB
0
TABLE
2
LTYPE
5
5
100
AcDbSymbolTable
0
LTYPE
5
14
100
AcDbSymbolTableRecord
100
AcDbLinetypeTableRecord
2
BYBLOCK
70
0
0
LTYPE
5
15
100
AcDbSymbolTableRecord
100
AcDbLinetypeTableRecord
2
BYLAYER
70
0
0
ENDTAB
0
TABLE
2
LAYER
5
2
100
AcDbSymbolTable
70
2
0
LAYER
5
50
100
AcDbSymbolTableRecord
100
AcDbLayerTableRecord
2
0
70
0
6
CONTINUOUS
0
ENDTAB
0
TABLE
2
STYLE
5
3
100
AcDbSymbolTable
70
1
0
STYLE
5
11
100
AcDbSymbolTableRecord
100
AcDbTextStyleTableRecord
2
STANDARD
70
0
0
ENDTAB
0
TABLE
2
VIEW
5
6
100
AcDbSymbolTable
70
0
0
ENDTAB
0
TABLE
2
UCS
5
7
100
AcDbSymbolTable
70
0
0
ENDTAB
0
TABLE
2
APPID
5
9
100
AcDbSymbolTable
70
2
0
APPID
5
12
100
AcDbSymbolTableRecord
100
AcDbRegAppTableRecord
2
ACAD
70
0
0
ENDTAB
0
TABLE
2
DIMSTYLE
5
A
100
AcDbSymbolTable
70
1
0
ENDTAB
0
TABLE
2
BLOCK_RECORD
5
1
100
AcDbSymbolTable
70
1
0
BLOCK_RECORD
5
1F
100
AcDbSymbolTableRecord
100
AcDbBlockTableRecord
2
*MODEL_SPACE
0
BLOCK_RECORD
5
1B
100
AcDbSymbolTableRecord
100
AcDbBlockTableRecord
2
*PAPER_SPACE
0
ENDTAB
0
ENDSEC
0
SECTION
2
BLOCKS
0
BLOCK
5
20
100
AcDbEntity
100
AcDbBlockBegin
2
*MODEL_SPACE
0
ENDBLK
5
21
100
AcDbEntity
100
AcDbBlockEnd
0
BLOCK
5
1C
100
AcDbEntity
100
AcDbBlockBegin
2
*PAPER_SPACE
0
ENDBLK
5
1D
100
AcDbEntity
100
AcDbBlockEnd
0
ENDSEC
0
SECTION
2
ENTITIES
0
SPLINE
5
100
100
AcDbEntity
8
0
100
AcDbSpline
70
1064
71
3
72
8
73
4
74
0
42
0.000000001
43
0.0000000001
44
0.0000000001
40
0
40
0
40
0
40
0
40
1
40
1
40
1
40
1
10
148.58999354044599
20
-25.294166262944543
30
0
10
149.43666343688966
20
-24.394582525889081
30
0
10
149.80708656311037
20
-23.203957525889081
30
0
10
150.57436854044599
20
-22.277915859222418
30
0
0
SPLINE
5
101
100
AcDbEntity
8
0
100
AcDbSpline
70
1064
71
3
72
8
73
4
74
0
42
0.000000001
43
0.0000000001
44
0.0000000001
40
0
40
0
40
0
40
0
40
1
40
1
40
1
40
1
10
150.57436854044599
20
-22.277915859222418
30
0
10
151.63270187377933
20
-26.220207929611206
30
0
10
152.18833656311037
20
-30.268333737055464
30
0
10
153.06145833333335
20
-34.237081718444827
30
0
0
SPLINE
5
102
100
AcDbEntity
8
0
100
AcDbSpline
70
1064
71
3
72
8
73
4
74
0
42
0.000000001
43
0.0000000001
44
0.0000000001
40
0
40
0
40
0
40
0
40
1
40
1
40
1
40
1
10
153.06145833333335
20
-34.237081718444827
30
0
10
153.22020187377933
20
-35.189583333333339
30
0
10
153.59062500000002
20
-36.08916505177816
30
0
10
154.066871770223
20
-36.909375000000004
30
0
0
SPLINE
5
103
100
AcDbEntity
8
0
100
AcDbSpline
70
1064
71
3
72
8
73
4
74
0
42
0.000000001
43
0.0000000001
44
0.0000000001
40
0
40
0
40
0
40
0
40
1
40
1
40
1
40
1
10
154.066871770223
20
-36.909375000000004
30
0
10
154.066871770223
20
-36.591875807444261
30
0
10
154.09333979288738
20
-36.300832525889085
30
0
10
154.09333979288738
20
-36.009793281555183
30
0
0
SPLINE
5
104
100
AcDbEntity
8
0
100
AcDbSpline
70
1064
71
3
72
8
73
4
74
0
42
0.000000001
43
0.0000000001
44
0.0000000001
40
0
40
0
40
0
40
0
40
1
40
1
40
1
40
1
10
154.09333979288738
20
-36.009793281555183
30
0
10
156.58041343688967
20
-38.100000000000009
30
0
10
159.94062500000001
20
-37.650209140777598
30
0
10
162.98333333333335
20
-37.808956718444826
30
0
0
SPLINE
5
105
100
AcDbEntity
8
0
100
AcDbSpline
70
1064
71
3
72
8
73
4
74
0
42
0.000000001
43
0.0000000001
44
0.0000000001
40
0
40
0
40
0
40
0
40
1
40
1
40
1
40
1
10
162.98333333333335
20
-37.808956718444826
30
0
10
167.37541020711265
20
-37.967708333333341
30
0
10
171.89979489644372
20
-37.412081718444831
30
0
10
176.21250000000003
20
-38.602706718444828
30
0
0
SPLINE
5
106
100
AcDbEntity
8
0
100
AcDbSpline
70
1064
71
3
72
8
73
4
74
0
42
0.000000001
43
0.0000000001
44
0.0000000001
40
0
40
0
40
0
40
0
40
1
40
1
40
1
40
1
10
176.21250000000003
20
-38.602706718444828
30
0
10
177.32375322977705
20
-38.893750000000004
30
0
10
177.93229166666669
20
-39.899167474110925
30
0
10
178.64666989644371
20
-40.692917474110928
30
0
0
SPLINE
5
107
100
AcDbEntity
8
0
100
AcDbSpline
70
1064
71
3
72
8
73
4
74
0
42
0.000000001
43
0.0000000001
44
0.0000000001
40
0
40
0
40
0
40
0
40
1
40
1
40
1
40
1
10
178.64666989644371
20
-40.692917474110928
30
0
10
182.00688145955408
20
-45.13791828155518
30
0
10
182.74771156311036
20
-50.90583171844483
30
0
10
182.88000322977706
20
-56.329790051778161
30
0
0
SPLINE
5
108
100
AcDbEntity
8
0
100
AcDbSpline
70
1064
71
3
72
8
73
4
74
0
42
0.000000001
43
0.0000000001
44
0.0000000001
40
0
40
0
40
0
40
0
40
1
40
1
40
1
40
1
10
182.88000322977706
20
-56.329790051778161
30
0
10
187.801246770223
20
-59.875209140777592
30
0
10
192.98708979288739
20
-63.076665051778164
30
0
10
197.90833333333336
20
-66.675000000000011
30
0
0
SPLINE
5
109
100
AcDbEntity
8
0
100
AcDbSpline
70
1064
71
3
72
8
73
4
74
0
42
0.000000001
43
0.0000000001
44
0.0000000001
40
0
40
0
40
0
40
0
40
1
40
1
40
1
40
1
10
197.90833333333336
20
-66.675000000000011
30
0
10
204.02020187377931
20
-70.961253229777029
30
0
10
209.73521156311037
20
-75.803125000000009
30
0
10
215.264993540446
20
-80.803748385111504
30
0
0
SPLINE
5
110
100
AcDbEntity
8
0
100
AcDbSpline
70
1064
71
3
72
8
73
4
74
0
42
0.000000001
43
0.0000000001
44
0.0000000001
40
0
40
0
40
0
40
0
40
1
40
1
40
1
40
1
10
215.264993540446
20
-80.803748385111504
30
0
10
217.16999677022301
20
-82.629371770223003
30
0
10
219.12791989644373
20
-84.50791505177817
30
0
10
220.23917312622075
20
-86.942084948221847
30
0
0
SPLINE
5
111
100
AcDbEntity
8
0
100
AcDbSpline
70
1064
71
3
72
8
73
4
74
0
42
0.000000001
43
0.0000000001
44
0.0000000001
40
0
40
0
40
0
40
0
40
1
40
1
40
1
40
1
10
220.23917312622075
20
-86.942084948221847
30
0
10
221.58854166666671
20
-89.693750000000009
30
0
10
220.98000322977703
20
-93.186253229777023
30
0
10
218.88978843688966
20
-95.382291666666674
30
0
0
SPLINE
5
112
100
AcDbEntity
8
0
100
AcDbSpline
70
1064
71
3
72
8
73
4
74
0
42
0.000000001
43
0.0000000001
44
0.0000000001
40
0
40
0
40
0
40
0
40
1
40
1
40
1
40
1
10
217.16999677022301
20
-94.244586563110374
30
0
10
226.45688145955407
20
-102.60541343688968
30
0
10
236.08770510355637
20
-110.59583333333335
30
0
10
245.32166989644372
20
-119.00958010355635
30
0
0
SPLINE
5
113
100
AcDbEntity
8
0
100
AcDbSpline
70
1064
71
3
72
8
73
4
74
0
42
0.000000001
43
0.0000000001
44
0.0000000001
40
0
40
0
40
0
40
0
40
1
40
1
40
1
40
1
10
245.32166989644372
20
-119.00958010355635
30
0
10
248.91999677022301
20
-122.63437500000002
30
0
10
252.73000322977705
20
-126.07395833333335
30
0
10
256.48708979288745
20
-129.54000161488852
30
0
0
SPLINE
5
114
100
AcDbEntity
8
0
100
AcDbSpline
70
1064
71
3
72
8
73
4
74
0
42
0.000000001
43
0.0000000001
44
0.0000000001
40
0
40
0
40
0
40
0
40
1
40
1
40
1
40
1
10
256.48708979288745
20
-129.54000161488852
30
0
10
257.91583010355635
20
-130.86291828155521
30
0
10
259.60916989644369
20
-131.94771156311037
30
0
10
260.93208656311037
20
-133.37645994822185
30
0
0
SPLINE
5
115
100
AcDbEntity
8
0
100
AcDbSpline
70
1064
71
3
72
8
73
4
74
0
42
0.000000001
43
0.0000000001
44
0.0000000001
40
0
40
0
40
0
40
0
40
1
40
1
40
1
40
1
10
257.22791989644372
20
-134.46125322977704
30
0
10
253.65604489644372
20
-133.24416828155518
30
0
10
251.30124677022303
20
-130.09562822977705
30
0
10
247.91458333333338
20
-128.58750000000003
30
0
0
SPLINE
5
116
100
AcDbEntity
8
0
100
AcDbSpline
70
1064
71
3
72
8
73
4
74
0
42
0.000000001
43
0.0000000001
44
0.0000000001
40
0
40
0
40
0
40
0
40
1
40
1
40
1
40
1
10
247.91458333333338
20
-128.58750000000003
30
0
10
245.42749354044599
20
-127.42333494822185
30
0
10
242.83458010355633
20
-126.55020510355634
30
0
10
240.26811854044598
20
-125.62416343688966
30
0
0
SPLINE
5
117
100
AcDbEntity
8
0
100
AcDbSpline
70
1064
71
3
72
8
73
4
74
0
42
0.000000001
43
0.0000000001
44
0.0000000001
40
0
40
0
40
0
40
0
40
1
40
1
40
1
40
1
10
240.26811854044598
20
-125.62416343688966
30
0
10
234.81770833333337
20
-123.63978843688967
30
0
10
229.02332687377933
20
-123.00479005177819
30
0
10
223.30833333333339
20
-122.26395994822185
30
0
0
SPLINE
5
118
100
AcDbEntity
8
0
100
AcDbSpline
70
1064
71
3
72
8
73
4
74
0
42
0.000000001
43
0.0000000001
44
0.0000000001
40
0
40
0
40
0
40
0
40
1
40
1
40
1
40
1
10
223.30833333333339
20
-122.26395994822185
30
0
10
219.76291020711267
20
-121.78770510355633
30
0
10
216.21750322977704
20
-121.7347932815552
30
0
10
212.67208010355634
20
-121.52312177022299
30
0
0
SPLINE
5
119
100
AcDbEntity
8
0
100
AcDbSpline
70
1064
71
3
72
8
73
4
74
0
42
0.000000001
43
0.0000000001
44
0.0000000001
40
0
40
0
40
0
40
0
40
1
40
1
40
1
40
1
10
212.67208010355634
20
-121.52312177022299
30
0
10
214.86811854044601
20
-122.87249838511151
30
0
10
217.1435448964437
20
-124.08958333333334
30
0
10
219.36603520711265
20
-125.35958010355634
30
0
0
SPLINE
5
120
100
AcDbEntity
8
0
100
AcDbSpline
70
1064
71
3
72
8
73
4
74
0
42
0.000000001
43
0.0000000001
44
0.0000000001
40
0
40
0
40
0
40
0
40
1
40
1
40
1
40
1
10
219.36603520711265
20
-125.35958010355634
30
0
10
226.13937822977704
20
-129.27541828155518
30
0
10
232.48937822977706
20
-133.7997948964437
30
0
10
239.15688145955409
20
-137.87436854044597
30
0
0
SPLINE
5
121
100
AcDbEntity
8
0
100
AcDbSpline
70
1064
71
3
72
8
73
4
74
0
42
0.000000001
43
0.0000000001
44
0.0000000001
40
0
40
0
40
0
40
0
40
1
40
1
40
1
40
1
10
239.15688145955409
20
-137.87436854044597
30
0
10
241.51166343688968
20
-139.48833656311038
30
0
10
244.13104489644371
20
-140.78478520711263
30
0
10
246.16833979288742
20
-142.79562822977704
30
0
0
SPLINE
5
122
100
AcDbEntity
8
0
100
AcDbSpline
70
1064
71
3
72
8
73
4
74
0
42
0.000000001
43
0.0000000001
44
0.0000000001
40
0
40
0
40
0
40
0
40
1
40
1
40
1
40
1
10
246.16833979288742
20
-142.79562822977704
30
0
10
240.42687822977706
20
-140.04395510355633
30
0
10
234.23562177022302
20
-138.45645510355635
30
0
10
228.09728520711269
20
-136.73666343688967
30
0
0
SPLINE
5
123
100
AcDbEntity
8
0
100
AcDbSpline
70
1064
71
3
72
8
73
4
74
0
42
0.000000001
43
0.0000000001
44
0.0000000001
40
0
40
0
40
0
40
0
40
1
40
1
40
1
40
1
10
228.09728520711269
20
-136.73666343688967
30
0
10
222.54103520711266
20
-135.51958656311035
30
0
10
216.8260416666667
20
-134.96395994822188
30
0
10
211.13750000000005
20
-135.49311854044598
30
0
0
SPLINE
5
124
100
AcDbEntity
8
0
100
AcDbSpline
70
1064
71
3
72
8
73
4
74
0
42
0.000000001
43
0.0000000001
44
0.0000000001
40
0
40
0
40
0
40
0
40
1
40
1
40
1
40
1
10
211.13750000000005
20
-135.49311854044598
30
0
10
211.56082687377932
20
-137.98020833333337
30
0
10
211.69311854044599
20
-140.54666989644372
30
0
10
212.38104489644371
20
-142.98083979288739
30
0
0
SPLINE
5
125
100
AcDbEntity
8
0
100
AcDbSpline
70
1064
71
3
72
8
73
4
74
0
42
0.000000001
43
0.0000000001
44
0.0000000001
40
0
40
0
40
0
40
0
40
1
40
1
40
1
40
1
10
212.38104489644371
20
-142.98083979288739
30
0
10
216.56145833333338
20
-147.00249354044598
30
0
10
221.24458656311037
20
-150.57436854044599
30
0
10
224.68416989644371
20
-155.3104166666667
30
0
0
SPLINE
5
126
100
AcDbEntity
8
0
100
AcDbSpline
70
1064
71
3
72
8
73
4
74
0
42
0.000000001
43
0.0000000001
44
0.0000000001
40
0
40
0
40
0
40
0
40
1
40
1
40
1
40
1
10
224.68416989644371
20
-155.3104166666667
30
0
10
220.66250000000002
20
-152.63813145955407
30
0
10
216.69375000000002
20
-149.86000645955406
30
0
10
212.4604166666667
20
-147.50520833333334
30
0
0
SPLINE
5
127
100
AcDbEntity
8
0
100
AcDbSpline
70
1064
71
3
72
8
73
4
74
0
42
0.000000001
43
0.0000000001
44
0.0000000001
40
0
40
0
40
0
40
0
40
1
40
1
40
1
40
1
10
212.4604166666667
20
-147.50520833333334
30
0
10
211.85187822977707
20
-149.96583010355633
30
0
10
213.46583010355633
20
-152.05604489644369
30
0
10
213.62458979288738
20
-154.43729489644372
30
0
0
SPLINE
5
128
100
AcDbEntity
8
0
100
AcDbSpline
70
1064
71
3
72
8
73
4
74
0
42
0.000000001
43
0.0000000001
44
0.0000000001
40
0
40
0
40
0
40
0
40
1
40
1
40
1
40
1
10
213.62458979288738
20
-154.43729489644372
30
0
10
213.94207687377931
20
-157.53292312622074
30
0
10
213.86270510355632
20
-160.70792312622072
30
0
10
213.28061854044597
20
-163.77708333333334
30
0
0
SPLINE
5
129
100
AcDbEntity
8
0
100
AcDbSpline
70
1064
71
3
72
8
73
4
74
0
42
0.000000001
43
0.0000000001
44
0.0000000001
40
0
40
0
40
0
40
0
40
1
40
1
40
1
40
1
10
213.28061854044597
20
-163.77708333333334
30
0
10
221.53562177022303
20
-159.46437822977703
30
0
10
229.10271479288741
20
-154.01395187377932
30
0
10
237.04021479288741
20
-149.19854812622071
30
0
0
SPLINE
5
130
100
AcDbEntity
8
0
100
AcDbSpline
70
1064
71
3
72
8
73
4
74
0
42
0.000000001
43
0.0000000001
44
0.0000000001
40
0
40
0
40
0
40
0
40
1
40
1
40
1
40
1
10
237.04021479288741
20
-149.19854812622071
30
0
10
244.47500000000005
20
-144.67416343688967
30
0
10
251.80396156311042
20
-139.96458333333334
30
0
10
259.58270187377934
20
-136.04875322977702
30
0
0
SPLINE
5
131
100
AcDbEntity
8
0
100
AcDbSpline
70
1064
71
3
72
8
73
4
74
0
42
0.000000001
43
0.0000000001
44
0.0000000001
40
0
40
0
40
0
40
0
40
1
40
1
40
1
40
1
10
259.58270187377934
20
-136.04875322977702
30
0
10
261.91104812622075
20
-134.91104005177817
30
0
10
263.921875
20
-133.32354005177817
30
0
10
265.98562177022302
20
-131.8154198964437
30
0
0
SPLINE
5
132
100
AcDbEntity
8
0
100
AcDbSpline
70
1064
71
3
72
8
73
4
74
0
42
0.000000001
43
0.0000000001
44
0.0000000001
40
0
40
0
40
0
40
0
40
1
40
1
40
1
40
1
10
265.98562177022302
20
-131.8154198964437
30
0
10
263.89542312622075
20
-133.90562661488852
30
0
10
262.25500322977706
20
-136.33978843688968
30
0
10
260.95853843688968
20
-138.98562177022302
30
0
0
SPLINE
5
133
100
AcDbEntity
8
0
100
AcDbSpline
70
1064
71
3
72
8
73
4
74
0
42
0.000000001
43
0.0000000001
44
0.0000000001
40
0
40
0
40
0
40
0
40
1
40
1
40
1
40
1
10
260.95853843688968
20
-138.98562177022302
30
0
10
256.61938145955406
20
-146.129371770223
30
0
10
252.51833979288739
20
-153.40541343688966
30
0
10
248.09979489644374
20
-160.52271156311036
30
0
0
SPLINE
5
134
100
AcDbEntity
8
0
100
AcDbSpline
70
1064
71
3
72
8
73
4
74
0
42
0.000000001
43
0.0000000001
44
0.0000000001
40
0
40
0
40
0
40
0
40
1
40
1
40
1
40
1
10
248.09979489644374
20
-160.52271156311036
30
0
10
245.42749354044599
20
-164.83541666666667
30
0
10
242.80812822977705
20
-169.2010416666667
30
0
10
240.26811854044598
20
-173.59311854044597
30
0
0
SPLINE
5
135
100
AcDbEntity
8
0
100
AcDbSpline
70
1064
71
3
72
8
73
4
74
0
42
0.000000001
43
0.0000000001
44
0.0000000001
40
0
40
0
40
0
40
0
40
1
40
1
40
1
40
1
10
240.26811854044598
20
-173.59311854044597
30
0
10
238.44250322977703
20
-176.60937500000003
30
0
10
236.88145510355636
20
-179.83729489644372
30
0
10
234.6854166666667
20
-182.64187177022302
30
0
0
SPLINE
5
136
100
AcDbEntity
8
0
100
AcDbSpline
70
1064
71
3
72
8
73
4
74
0
42
0.000000001
43
0.0000000001
44
0.0000000001
40
0
40
0
40
0
40
0
40
1
40
1
40
1
40
1
10
234.6854166666667
20
-182.64187177022302
30
0
10
235.66437822977704
20
-178.88478520711266
30
0
10
237.43708979288741
20
-175.44520187377935
30
0
10
238.76000645955406
20
-171.82042312622073
30
0
0
SPLINE
5
137
100
AcDbEntity
8
0
100
AcDbSpline
70
1064
71
3
72
8
73
4
74
0
42
0.000000001
43
0.0000000001
44
0.0000000001
40
0
40
0
40
0
40
0
40
1
40
1
40
1
40
1
10
238.76000645955406
20
-171.82042312622073
30
0
10
242.06729812622075
20
-163.38020833333334
30
0
10
244.87187500000005
20
-154.75479812622072
30
0
10
247.91458333333338
20
-146.23521156311037
30
0
0
SPLINE
5
138
100
AcDbEntity
8
0
100
AcDbSpline
70
1064
71
3
72
8
73
4
74
0
42
0.000000001
43
0.0000000001
44
0.0000000001
40
0
40
0
40
0
40
0
40
1
40
1
40
1
40
1
10
247.91458333333338
20
-146.23521156311037
30
0
10
239.84479166666671
20
-151.6591698964437
30
0
10
231.93374354044602
20
-157.40063145955406
30
0
10
224.55187822977706
20
-163.75063145955406
30
0
0
SPLINE
5
139
100
AcDbEntity
8
0
100
AcDbSpline
70
1064
71
3
72
8
73
4
74
0
42
0.000000001
43
0.0000000001
44
0.0000000001
40
0
40
0
40
0
40
0
40
1
40
1
40
1
40
1
10
224.55187822977706
20
-163.75063145955406
30
0
10
226.85375645955406
20
-168.69832687377934
30
0
10
229.49958979288741
20
-173.4872948964437
30
0
10
232.03958333333335
20
-178.32916666666671
30
0
0
SPLINE
5
140
100
AcDbEntity
8
0
100
AcDbSpline
70
1064
71
3
72
8
73
4
74
0
42
0.000000001
43
0.0000000001
44
0.0000000001
40
0
40
0
40
0
40
0
40
1
40
1
40
1
40
1
10
232.03958333333335
20
-178.32916666666671
30
0
10
232.99207687377933
20
-179.863746770223
30
0
10
233.25666020711267
20
-181.79520187377932
30
0
10
234.50020510355637
20
-183.14458656311041
30
0
0
SPLINE
5
141
100
AcDbEntity
8
0
100
AcDbSpline
70
1064
71
3
72
8
73
4
74
0
42
0.000000001
43
0.0000000001
44
0.0000000001
40
0
40
0
40
0
40
0
40
1
40
1
40
1
40
1
10
234.50020510355637
20
-183.14458656311041
30
0
10
232.96562500000005
20
-183.70020510355633
30
0
10
231.45749677022303
20
-184.30874354044596
30
0
10
229.81707687377934
20
-184.57332687377931
30
0
0
SPLINE
5
142
100
AcDbEntity
8
0
100
AcDbSpline
70
1064
71
3
72
8
73
4
74
0
42
0.000000001
43
0.0000000001
44
0.0000000001
40
0
40
0
40
0
40
0
40
1
40
1
40
1
40
1
10
229.81707687377934
20
-184.57332687377931
30
0
10
220.84771156311038
20
-186.16082687377934
30
0
10
211.77250645955408
20
-187.40437177022301
30
0
10
202.90896479288739
20
-189.62687822977705
30
0
0
SPLINE
5
143
100
AcDbEntity
8
0
100
AcDbSpline
70
1064
71
3
72
8
73
4
74
0
42
0.000000001
43
0.0000000001
44
0.0000000001
40
0
40
0
40
0
40
0
40
1
40
1
40
1
40
1
10
45.614165051778166
20
-230.90187822977703
30
0
10
44.238332525889078
20
-227.46229489644372
30
0
10
42.703748385111496
20
-223.99624354044602
30
0
10
40.216666666666676
20
-221.19166666666669
30
0
0
SPLINE
5
144
100
AcDbEntity
8
0
100
AcDbSpline
70
1064
71
3
72
8
73
4
74
0
42
0.000000001
43
0.0000000001
44
0.0000000001
40
0
40
0
40
0
40
0
40
1
40
1
40
1
40
1
10
40.216666666666676
20
-221.19166666666669
30
0
10
36.988750807444262
20
-217.35520833333337
30
0
10
32.199790859222418
20
-215.07979812622074
30
0
10
29.368750000000006
20
-210.8729166666667
30
0
0
SPLINE
5
145
100
AcDbEntity
8
0
100
AcDbSpline
70
1064
71
3
72
8
73
4
74
0
42
0.000000001
43
0.0000000001
44
0.0000000001
40
0
40
0
40
0
40
0
40
1
40
1
40
1
40
1
10
29.368750000000006
20
-210.8729166666667
30
0
10
26.35249959627788
20
-206.77187500000002
30
0
10
25.98208252588908
20
-201.53312822977705
30
0
10
25.320624192555748
20
-196.66478843688967
30
0
0
SPLINE
5
146
100
AcDbEntity
8
0
100
AcDbSpline
70
1064
71
3
72
8
73
4
74
0
42
0.000000001
43
0.0000000001
44
0.0000000001
40
0
40
0
40
0
40
0
40
1
40
1
40
1
40
1
10
25.320624192555748
20
-196.66478843688967
30
0
10
25.003125000000001
20
-193.06646156311041
30
0
10
23.944791666666671
20
-189.57395833333337
30
0
10
23.468540859222419
20
-186.00208333333336
30
0
0
SPLINE
5
147
100
AcDbEntity
8
0
100
AcDbSpline
70
1064
71
3
72
8
73
4
74
0
42
0.000000001
43
0.0000000001
44
0.0000000001
40
0
40
0
40
0
40
0
40
1
40
1
40
1
40
1
10
23.468540859222419
20
-186.00208333333336
30
0
10
26.749374596277878
20
-183.9383365631104
30
0
10
31.167917474110926
20
-183.35625000000005
30
0
10
34.660416666666677
20
-185.20833333333337
30
0
0
SPLINE
5
148
100
AcDbEntity
8
0
100
AcDbSpline
70
1064
71
3
72
8
73
4
74
0
42
0.000000001
43
0.0000000001
44
0.0000000001
40
0
40
0
40
0
40
0
40
1
40
1
40
1
40
1
10
34.660416666666677
20
-185.20833333333337
30
0
10
38.893750000000004
20
-187.13978843688966
30
0
10
41.830626614888516
20
-190.92332687377933
30
0
10
45.243750000000006
20
-193.93958333333336
30
0
0
SPLINE
5
149
100
AcDbEntity
8
0
100
AcDbSpline
70
1064
71
3
72
8
73
4
74
0
42
0.000000001
43
0.0000000001
44
0.0000000001
40
0
40
0
40
0
40
0
40
1
40
1
40
1
40
1
10
45.243750000000006
20
-193.93958333333336
30
0
10
48.180626614888517
20
-196.71770833333338
30
0
10
51.620209948221849
20
-198.88729489644373
30
0
10
55.297916666666673
20
-200.58061854044598
30
0
0
SPLINE
5
150
100
AcDbEntity
8
0
100
AcDbSpline
70
1064
71
3
72
8
73
4
74
0
42
0.000000001
43
0.0000000001
44
0.0000000001
40
0
40
0
40
0
40
0
40
1
40
1
40
1
40
1
10
55.297916666666673
20
-200.58061854044598
30
0
10
57.229375807444271
20
-201.55958010355633
30
0
10
59.451874192555756
20
-201.71833979288738
30
0
10
61.515625000000007
20
-202.32687822977707
30
0
0
SPLINE
5
151
100
AcDbEntity
8
0
100
AcDbSpline
70
1064
71
3
72
8
73
4
74
0
42
0.000000001
43
0.0000000001
44
0.0000000001
40
0
40
0
40
0
40
0
40
1
40
1
40
1
40
1
10
221.69438145955408
20
-165.07354812622071
30
0
10
225.84832687377934
20
-160.97250645955404
30
0
10
230.55792312622074
20
-157.50645510355633
30
0
10
235.21458333333334
20
-153.98750000000001
30
0
0
SPLINE
5
152
100
AcDbEntity
8
0
100
AcDbSpline
70
1064
71
3
72
8
73
4
74
0
42
0.000000001
43
0.0000000001
44
0.0000000001
40
0
40
0
40
0
40
0
40
1
40
1
40
1
40
1
10
235.21458333333334
20
-153.98750000000001
30
0
10
242.19958979288742
20
-148.58999354044599
30
0
10
249.713746770223
20
-143.95978520711265
30
0
10
256.77812500000005
20
-138.69458656311036
30
0
0
SPLINE
5
153
100
AcDbEntity
8
0
100
AcDbSpline
70
1064
71
3
72
8
73
4
74
0
42
0.000000001
43
0.0000000001
44
0.0000000001
40
0
40
0
40
0
40
0
40
1
40
1
40
1
40
1
10
256.77812500000005
20
-138.69458656311036
30
0
10
251.03666343688968
20
-141.52563145955406
30
0
10
245.71854489644375
20
-145.12395833333335
30
0
10
240.21521479288739
20
-148.40479812622073
30
0
0
SPLINE
5
154
100
AcDbEntity
8
0
100
AcDbSpline
70
1064
71
3
72
8
73
4
74
0
42
0.000000001
43
0.0000000001
44
0.0000000001
40
0
40
0
40
0
40
0
40
1
40
1
40
1
40
1
10
240.21521479288739
20
-148.40479812622073
30
0
10
231.40457687377932
20
-153.6435448964437
30
0
10
223.04375000000005
20
-159.64958979288741
30
0
10
214.0214647928874
20
-164.54438145955407
30
0
0
SPLINE
5
155
100
AcDbEntity
8
0
100
AcDbSpline
70
1064
71
3
72
8
73
4
74
0
42
0.000000001
43
0.0000000001
44
0.0000000001
40
0
40
0
40
0
40
0
40
1
40
1
40
1
40
1
10
214.0214647928874
20
-164.54438145955407
30
0
10
207.01000645955406
20
-168.48666343688967
30
0
10
199.91916020711267
20
-172.323121770223
30
0
10
193.22520510355633
20
-176.82103843688967
30
0
0
SPLINE
5
156
100
AcDbEntity
8
0
100
AcDbSpline
70
1064
71
3
72
8
73
4
74
0
42
0.000000001
43
0.0000000001
44
0.0000000001
40
0
40
0
40
0
40
0
40
1
40
1
40
1
40
1
10
193.22520510355633
20
-176.82103843688967
30
0
10
192.59021479288742
20
-177.24438145955406
30
0
10
191.71707687377932
20
-177.08562177022301
30
0
10
191.0291666666667
20
-177.11208979288739
30
0
0
SPLINE
5
157
100
AcDbEntity
8
0
100
AcDbSpline
70
1064
71
3
72
8
73
4
74
0
42
0.000000001
43
0.0000000001
44
0.0000000001
40
0
40
0
40
0
40
0
40
1
40
1
40
1
40
1
10
191.0291666666667
20
-177.11208979288739
30
0
10
183.17103843688969
20
-176.92687822977703
30
0
10
175.31291020711265
20
-177.00625000000002
30
0
10
167.45479812622074
20
-177.00625000000002
30
0
0
SPLINE
5
158
100
AcDbEntity
8
0
100
AcDbSpline
70
1064
71
3
72
8
73
4
74
0
42
0.000000001
43
0.0000000001
44
0.0000000001
40
0
40
0
40
0
40
0
40
1
40
1
40
1
40
1
10
167.45479812622074
20
-177.00625000000002
30
0
10
167.69291343688965
20
-180.65749677022299
30
0
10
168.08978843688965
20
-184.30874354044596
30
0
10
168.56603520711263
20
-187.93353843688971
30
0
0
SPLINE
5
159
100
AcDbEntity
8
0
100
AcDbSpline
70
1064
71
3
72
8
73
4
74
0
42
0.000000001
43
0.0000000001
44
0.0000000001
40
0
40
0
40
0
40
0
40
1
40
1
40
1
40
1
10
168.56603520711263
20
-187.93353843688971
30
0
10
177.53541666666672
20
-184.75853843688967
30
0
10
186.58416989644371
20
-181.74229812622073
30
0
10
194.9979166666667
20
-177.27083333333337
30
0
0
SPLINE
5
160
100
AcDbEntity
8
0
100
AcDbSpline
70
1064
71
3
72
8
73
4
74
0
42
0.000000001
43
0.0000000001
44
0.0000000001
40
0
40
0
40
0
40
0
40
1
40
1
40
1
40
1
10
194.9979166666667
20
-177.27083333333337
30
0
10
200.104371770223
20
-174.78374354044601
30
0
10
205.07853520711265
20
-172.03208656311037
30
0
10
210.31729812622075
20
-169.83604812622073
30
0
0
SPLINE
5
161
100
AcDbEntity
8
0
100
AcDbSpline
70
1064
71
3
72
8
73
4
74
0
42
0.000000001
43
0.0000000001
44
0.0000000001
40
0
40
0
40
0
40
0
40
1
40
1
40
1
40
1
10
69.294373385111498
20
-201.82416343688968
30
0
10
68.606455103556328
20
-197.88188145955405
30
0
10
68.262500000000003
20
-193.88666343688968
30
0
10
67.759793281555176
20
-189.91791343688965
30
0
0
SPLINE
5
162
100
AcDbEntity
8
0
100
AcDbSpline
70
1064
71
3
72
8
73
4
74
0
42
0.000000001
43
0.0000000001
44
0.0000000001
40
0
40
0
40
0
40
0
40
1
40
1
40
1
40
1
10
67.759793281555176
20
-189.91791343688965
30
0
10
64.055626614888524
20
-190.05020510355635
30
0
10
60.351459948221859
20
-190.73813145955404
30
0
10
57.123540051778164
20
-192.6166666666667
30
0
0
SPLINE
5
163
100
AcDbEntity
8
0
100
AcDbSpline
70
1064
71
3
72
8
73
4
74
0
42
0.000000001
43
0.0000000001
44
0.0000000001
40
0
40
0
40
0
40
0
40
1
40
1
40
1
40
1
10
57.123540051778164
20
-192.6166666666667
30
0
10
59.26666666666668
20
-189.62687822977705
30
0
10
61.489165051778166
20
-186.55770187377931
30
0
10
62.600418281555186
20
-183.01229489644371
30
0
0
SPLINE
5
164
100
AcDbEntity
8
0
100
AcDbSpline
70
1064
71
3
72
8
73
4
74
0
42
0.000000001
43
0.0000000001
44
0.0000000001
40
0
40
0
40
0
40
0
40
1
40
1
40
1
40
1
10
62.600418281555186
20
-183.01229489644371
30
0
10
64.373125807444268
20
-178.3027147928874
30
0
10
64.79645671844483
20
-173.24916343688969
30
0
10
64.558333333333337
20
-168.27500000000003
30
0
0
SPLINE
5
165
100
AcDbEntity
8
0
100
AcDbSpline
70
1064
71
3
72
8
73
4
74
0
42
0.000000001
43
0.0000000001
44
0.0000000001
40
0
40
0
40
0
40
0
40
1
40
1
40
1
40
1
10
64.558333333333337
20
-168.27500000000003
30
0
10
56.567917474110928
20
-167.98396479288741
30
0
10
48.41875000000001
20
-169.04229812622074
30
0
10
40.534165859222419
20
-167.32250645955406
30
0
0
SPLINE
5
166
100
AcDbEntity
8
0
100
AcDbSpline
70
1064
71
3
72
8
73
4
74
0
42
0.000000001
43
0.0000000001
44
0.0000000001
40
0
40
0
40
0
40
0
40
1
40
1
40
1
40
1
10
115.64937661488852
20
-122.5285432815552
30
0
10
115.54354489644369
20
-122.18458010355633
30
0
10
115.43770510355634
20
-121.84062500000002
30
0
10
115.30541343688967
20
-121.49666989644371
30
0
0
SPLINE
5
167
100
AcDbEntity
8
0
100
AcDbSpline
70
1064
71
3
72
8
73
4
74
0
42
0.000000001
43
0.0000000001
44
0.0000000001
40
0
40
0
40
0
40
0
40
1
40
1
40
1
40
1
10
41.883542474110925
20
-139.59416020711265
30
0
10
42.22750161488851
20
-138.0860481262207
30
0
10
42.888959948221846
20
-136.68374354044599
30
0
10
43.418126614888514
20
-135.2285432815552
30
0
0
SPLINE
5
168
100
AcDbEntity
8
0
100
AcDbSpline
70
1064
71
3
72
8
73
4
74
0
42
0.000000001
43
0.0000000001
44
0.0000000001
40
0
40
0
40
0
40
0
40
1
40
1
40
1
40
1
10
43.418126614888514
20
-135.2285432815552
30
0
10
45.323125807444256
20
-129.19603843688967
30
0
10
44.741043281555186
20
-122.74020671844484
30
0
10
43.418126614888514
20
-116.62833010355634
30
0
0
SPLINE
5
169
100
AcDbEntity
8
0
100
AcDbSpline
70
1064
71
3
72
8
73
4
74
0
42
0.000000001
43
0.0000000001
44
0.0000000001
40
0
40
0
40
0
40
0
40
1
40
1
40
1
40
1
10
44.95270671844483
20
-114.96145833333335
30
0
10
45.084998385111497
20
-114.06187661488852
30
0
10
45.323125807444256
20
-113.1622948964437
30
0
10
45.640625
20
-112.28916505177818
30
0
0
SPLINE
5
170
100
AcDbEntity
8
0
100
AcDbSpline
70
1064
71
3
72
8
73
4
74
0
42
0.000000001
43
0.0000000001
44
0.0000000001
40
0
40
0
40
0
40
0
40
1
40
1
40
1
40
1
10
45.640625
20
-112.28916505177818
30
0
10
47.069373385111497
20
-108.08229166666669
30
0
10
47.757291666666674
20
-103.47854328155519
30
0
10
46.698958333333344
20
-99.112918281555196
30
0
0
SPLINE
5
171
100
AcDbEntity
8
0
100
AcDbSpline
70
1064
71
3
72
8
73
4
74
0
42
0.000000001
43
0.0000000001
44
0.0000000001
40
0
40
0
40
0
40
0
40
1
40
1
40
1
40
1
10
46.698958333333344
20
-99.112918281555196
30
0
10
46.302083333333343
20
-96.811040051778164
30
0
10
45.349581718444831
20
-94.720833333333331
30
0
10
44.661667474110928
20
-92.524794896443709
30
0
0
SPLINE
5
172
100
AcDbEntity
8
0
100
AcDbSpline
70
1064
71
3
72
8
73
4
74
0
42
0.000000001
43
0.0000000001
44
0.0000000001
40
0
40
0
40
0
40
0
40
1
40
1
40
1
40
1
10
44.661667474110928
20
-92.524794896443709
30
0
10
49.688750807444258
20
-91.836876614888524
30
0
10
54.74229005177817
20
-92.15437177022298
30
0
10
59.795833333333341
20
-92.551246770223003
30
0
0
SPLINE
5
173
100
AcDbEntity
8
0
100
AcDbSpline
70
1064
71
3
72
8
73
4
74
0
42
0.000000001
43
0.0000000001
44
0.0000000001
40
0
40
0
40
0
40
0
40
1
40
1
40
1
40
1
10
59.795833333333341
20
-92.551246770223003
30
0
10
59.690001614888516
20
-91.492913436889665
30
0
10
59.584165859222423
20
-90.46104005177817
30
0
10
59.478334140777598
20
-89.402706718444847
30
0
0
SPLINE
5
174
100
AcDbEntity
8
0
100
AcDbSpline
70
1064
71
3
72
8
73
4
74
0
42
0.000000001
43
0.0000000001
44
0.0000000001
40
0
40
0
40
0
40
0
40
1
40
1
40
1
40
1
10
59.478334140777598
20
-89.402706718444847
30
0
10
54.318959140777594
20
-89.191043281555196
30
0
10
49.159584140777596
20
-90.090625000000003
30
0
10
44.370624192555752
20
-92.022080103556334
30
0
0
SPLINE
5
175
100
AcDbEntity
8
0
100
AcDbSpline
70
1064
71
3
72
8
73
4
74
0
42
0.000000001
43
0.0000000001
44
0.0000000001
40
0
40
0
40
0
40
0
40
1
40
1
40
1
40
1
10
44.370624192555752
20
-92.022080103556334
30
0
10
48.127706718444827
20
-85.857291666666683
30
0
10
48.762709140777588
20
-78.422498385111496
30
0
10
48.101250807444266
20
-71.384580103556331
30
0
0
SPLINE
5
176
100
AcDbEntity
8
0
100
AcDbSpline
70
1064
71
3
72
8
73
4
74
0
42
0.000000001
43
0.0000000001
44
0.0000000001
40
0
40
0
40
0
40
0
40
1
40
1
40
1
40
1
10
48.101250807444266
20
-71.384580103556331
30
0
10
51.249790859222422
20
-69.611876614888516
30
0
10
55.059793281555187
20
-70.670209948221853
30
0
10
58.472916666666677
20
-70.352706718444836
30
0
0
SPLINE
5
177
100
AcDbEntity
8
0
100
AcDbSpline
70
1064
71
3
72
8
73
4
74
0
42
0.000000001
43
0.0000000001
44
0.0000000001
40
0
40
0
40
0
40
0
40
1
40
1
40
1
40
1
10
58.472916666666677
20
-70.352706718444836
30
0
10
58.605208333333337
20
-68.553543281555193
30
0
10
58.711040051778163
20
-66.727915859222421
30
0
10
58.763959948221853
20
-64.928748385111504
30
0
0
SPLINE
5
178
100
AcDbEntity
8
0
100
AcDbSpline
70
1064
71
3
72
8
73
4
74
0
42
0.000000001
43
0.0000000001
44
0.0000000001
40
0
40
0
40
0
40
0
40
1
40
1
40
1
40
1
10
58.763959948221853
20
-64.928748385111504
30
0
10
56.779584948221853
20
-64.558333333333337
30
0
10
55.641875807444265
20
-66.727915859222421
30
0
10
53.683956718444833
20
-66.595624192555761
30
0
0
SPLINE
5
179
100
AcDbEntity
8
0
100
AcDbSpline
70
1064
71
3
72
8
73
4
74
0
42
0.000000001
43
0.0000000001
44
0.0000000001
40
0
40
0
40
0
40
0
40
1
40
1
40
1
40
1
10
53.683956718444833
20
-66.595624192555761
30
0
10
52.281668281555184
20
-66.595624192555761
30
0
10
51.064583333333346
20
-67.283542474110931
30
0
10
49.873958333333341
20
-67.918544896443692
30
0
0
SPLINE
5
180
100
AcDbEntity
8
0
100
AcDbSpline
70
1064
71
3
72
8
73
4
74
0
42
0.000000001
43
0.0000000001
44
0.0000000001
40
0
40
0
40
0
40
0
40
1
40
1
40
1
40
1
10
49.873958333333341
20
-67.918544896443692
30
0
10
51.038123385111504
20
-66.886667474110936
30
0
10
52.387500000000003
20
-65.987081718444841
30
0
10
53.975000000000009
20
-65.801874192555758
30
0
0
SPLINE
5
181
100
AcDbEntity
8
0
100
AcDbSpline
70
1064
71
3
72
8
73
4
74
0
42
0.000000001
43
0.0000000001
44
0.0000000001
40
0
40
0
40
0
40
0
40
1
40
1
40
1
40
1
10
53.975000000000009
20
-65.801874192555758
30
0
10
55.536040051778166
20
-65.537290859222423
30
0
10
55.932915051778167
20
-63.473540051778166
30
0
10
57.679166666666674
20
-63.420624192555756
30
0
0
SPLINE
5
182
100
AcDbEntity
8
0
100
AcDbSpline
70
1064
71
3
72
8
73
4
74
0
42
0.000000001
43
0.0000000001
44
0.0000000001
40
0
40
0
40
0
40
0
40
1
40
1
40
1
40
1
10
57.679166666666674
20
-63.420624192555756
30
0
10
58.420000807444261
20
-63.235416666666673
30
0
10
58.869791666666671
20
-62.573958333333344
30
0
10
59.319582525889089
20
-61.965415859222418
30
0
0
SPLINE
5
183
100
AcDbEntity
8
0
100
AcDbSpline
70
1064
71
3
72
8
73
4
74
0
42
0.000000001
43
0.0000000001
44
0.0000000001
40
0
40
0
40
0
40
0
40
1
40
1
40
1
40
1
10
59.319582525889089
20
-61.965415859222418
30
0
10
59.901665051778167
20
-64.770000807444262
30
0
10
60.589583333333337
20
-67.548125807444265
30
0
10
61.198125807444264
20
-70.326246770222994
30
0
0
SPLINE
5
184
100
AcDbEntity
8
0
100
AcDbSpline
70
1064
71
3
72
8
73
4
74
0
42
0.000000001
43
0.0000000001
44
0.0000000001
40
0
40
0
40
0
40
0
40
1
40
1
40
1
40
1
10
61.198125807444264
20
-70.326246770222994
30
0
10
66.463332525889086
20
-70.74958171844483
30
0
10
71.755003229777031
20
-70.56437822977702
30
0
10
77.046669896443689
20
-70.802501614888513
30
0
0
SPLINE
5
185
100
AcDbEntity
8
0
100
AcDbSpline
70
1064
71
3
72
8
73
4
74
0
42
0.000000001
43
0.0000000001
44
0.0000000001
40
0
40
0
40
0
40
0
40
1
40
1
40
1
40
1
10
77.046669896443689
20
-70.802501614888513
30
0
10
78.396038436889654
20
-70.881873385111504
30
0
10
79.242708333333354
20
-69.558956718444833
30
0
10
80.142290051778176
20
-68.76520671844483
30
0
0
SPLINE
5
186
100
AcDbEntity
8
0
100
AcDbSpline
70
1064
71
3
72
8
73
4
74
0
42
0.000000001
43
0.0000000001
44
0.0000000001
40
0
40
0
40
0
40
0
40
1
40
1
40
1
40
1
10
80.142290051778176
20
-68.76520671844483
30
0
10
82.761663436889648
20
-66.040001614888524
30
0
10
83.714165051778181
20
-62.256459140777594
30
0
10
83.978748385111501
20
-58.605208333333337
30
0
0
SPLINE
5
187
100
AcDbEntity
8
0
100
AcDbSpline
70
1064
71
3
72
8
73
4
74
0
42
0.000000001
43
0.0000000001
44
0.0000000001
40
0
40
0
40
0
40
0
40
1
40
1
40
1
40
1
10
83.978748385111501
20
-58.605208333333337
30
0
10
84.08458010355632
20
-55.377292474110931
30
0
10
83.872916666666683
20
-52.096456718444834
30
0
10
83.105626614888521
20
-48.92145671844483
30
0
0
SPLINE
5
188
100
AcDbEntity
8
0
100
AcDbSpline
70
1064
71
3
72
8
73
4
74
0
42
0.000000001
43
0.0000000001
44
0.0000000001
40
0
40
0
40
0
40
0
40
1
40
1
40
1
40
1
10
83.105626614888521
20
-48.92145671844483
30
0
10
82.788123385111504
20
-47.572084140777591
30
0
10
82.39124838511151
20
-46.222707525889092
30
0
10
82.33833656311036
20
-44.82041505177817
30
0
0
SPLINE
5
189
100
AcDbEntity
8
0
100
AcDbSpline
70
1064
71
3
72
8
73
4
74
0
42
0.000000001
43
0.0000000001
44
0.0000000001
40
0
40
0
40
0
40
0
40
1
40
1
40
1
40
1
10
127.8466698964437
20
-45.376041666666673
30
0
10
128.48166828155519
20
-46.116875807444259
30
0
10
129.06374677022302
20
-46.884165859222414
30
0
10
129.64583333333334
20
-47.651459948221849
30
0
0
SPLINE
5
190
100
AcDbEntity
8
0
100
AcDbSpline
70
1064
71
3
72
8
73
4
74
0
42
0.000000001
43
0.0000000001
44
0.0000000001
40
0
40
0
40
0
40
0
40
1
40
1
40
1
40
1
10
129.64583333333334
20
-47.651459948221849
30
0
10
129.43416989644371
20
-44.450000000000003
30
0
10
128.90500322977704
20
-41.248540051778164
30
0
10
128.53458010355632
20
-38.047084140777592
30
0
0
SPLINE
5
191
100
AcDbEntity
8
0
100
AcDbSpline
70
1064
71
3
72
8
73
4
74
0
42
0.000000001
43
0.0000000001
44
0.0000000001
40
0
40
0
40
0
40
0
40
1
40
1
40
1
40
1
10
128.53458010355632
20
-38.047084140777592
30
0
10
131.97416343688968
20
-37.041666666666671
30
0
10
135.62541020711265
20
-37.332709948221847
30
0
10
139.17083333333335
20
-37.279790051778164
30
0
0
SPLINE
5
192
100
AcDbEntity
8
0
100
AcDbSpline
70
1064
71
3
72
8
73
4
74
0
42
0.000000001
43
0.0000000001
44
0.0000000001
40
0
40
0
40
0
40
0
40
1
40
1
40
1
40
1
10
139.17083333333335
20
-37.279790051778164
30
0
10
142.98083979288739
20
-37.306250000000006
30
0
10
146.76437822977704
20
-37.253334140777589
30
0
10
150.57436854044599
20
-37.544373385111498
30
0
0
SPLINE
5
193
100
AcDbEntity
8
0
100
AcDbSpline
70
1064
71
3
72
8
73
4
74
0
42
0.000000001
43
0.0000000001
44
0.0000000001
40
0
40
0
40
0
40
0
40
1
40
1
40
1
40
1
10
150.57436854044599
20
-37.544373385111498
30
0
10
150.36270510355632
20
-34.316457525889085
30
0
10
150.28333333333336
20
-31.062083737055467
30
0
10
150.44207687377931
20
-27.834165859222416
30
0
0
SPLINE
5
194
100
AcDbEntity
8
0
100
AcDbSpline
70
1064
71
3
72
8
73
4
74
0
42
0.000000001
43
0.0000000001
44
0.0000000001
40
0
40
0
40
0
40
0
40
1
40
1
40
1
40
1
10
150.44207687377931
20
-27.834165859222416
30
0
10
148.32541020711264
20
-27.675416262944545
30
0
10
146.129371770223
20
-28.1516670703888
30
0
10
144.01270510355633
20
-27.834165859222416
30
0
0
SPLINE
5
195
100
AcDbEntity
8
0
100
AcDbSpline
70
1064
71
3
72
8
73
4
74
0
42
0.000000001
43
0.0000000001
44
0.0000000001
40
0
40
0
40
0
40
0
40
1
40
1
40
1
40
1
10
144.01270510355633
20
-27.834165859222416
30
0
10
142.68978843688967
20
-28.866041262944542
30
0
10
141.3139518737793
20
-30.056666262944542
30
0
10
139.56770833333334
20
-30.241875807444259
30
0
0
SPLINE
5
196
100
AcDbEntity
8
0
100
AcDbSpline
70
1064
71
3
72
8
73
4
74
0
42
0.000000001
43
0.0000000001
44
0.0000000001
40
0
40
0
40
0
40
0
40
1
40
1
40
1
40
1
10
139.56770833333334
20
-30.241875807444259
30
0
10
137.29229812622071
20
-30.479999192555752
30
0
10
134.96395994822188
20
-30.744582525889083
30
0
10
132.97958494822186
20
-31.988125403722133
30
0
0
SPLINE
5
197
100
AcDbEntity
8
0
100
AcDbSpline
70
1064
71
3
72
8
73
4
74
0
42
0.000000001
43
0.0000000001
44
0.0000000001
40
0
40
0
40
0
40
0
40
1
40
1
40
1
40
1
10
132.97958494822186
20
-31.988125403722133
30
0
10
133.93208656311037
20
-31.167917474110926
30
0
10
134.96395994822188
20
-30.400625403722131
30
0
10
136.18104489644369
20
-30.083124192555747
30
0
0
SPLINE
5
198
100
AcDbEntity
8
0
100
AcDbSpline
70
1064
71
3
72
8
73
4
74
0
42
0.000000001
43
0.0000000001
44
0.0000000001
40
0
40
0
40
0
40
0
40
1
40
1
40
1
40
1
10
136.18104489644369
20
-30.083124192555747
30
0
10
137.53041343688966
20
-29.739167070388799
30
0
10
138.98562177022302
20
-29.553957525889082
30
0
10
140.176246770223
20
-28.760207525889079
30
0
0
SPLINE
5
199
100
AcDbEntity
8
0
100
AcDbSpline
70
1064
71
3
72
8
73
4
74
0
42
0.000000001
43
0.0000000001
44
0.0000000001
40
0
40
0
40
0
40
0
40
1
40
1
40
1
40
1
10
140.176246770223
20
-28.760207525889079
30
0
10
141.49916343688966
20
-27.807707929611212
30
0
10
142.557496770223
20
-26.405417474110923
30
0
10
144.17146479288738
20
-25.929166666666671
30
0
0
SPLINE
5
200
100
AcDbEntity
8
0
100
AcDbSpline
70
1064
71
3
72
8
73
4
74
0
42
0.000000001
43
0.0000000001
44
0.0000000001
40
0
40
0
40
0
40
0
40
1
40
1
40
1
40
1
10
144.17146479288738
20
-25.929166666666671
30
0
10
145.62667312622071
20
-25.638125403722132
30
0
10
147.13478520711266
20
-25.638125403722132
30
0
10
148.58999354044599
20
-25.294166262944543
30
0
0
SPLINE
5
201
100
AcDbEntity
8
0
100
AcDbSpline
70
1064
71
3
72
8
73
4
74
0
42
0.000000001
43
0.0000000001
44
0.0000000001
40
0
40
0
40
0
40
0
40
1
40
1
40
1
40
1
10
96.440625000000026
20
-37.438541666666673
30
0
10
97.472498385111507
20
-36.380208333333343
30
0
10
98.663123385111504
20
-35.507082525889082
30
0
10
99.933128229777026
20
-34.819168281555179
30
0
0
SPLINE
5
202
100
AcDbEntity
8
0
100
AcDbSpline
70
1064
71
3
72
8
73
4
74
0
42
0.000000001
43
0.0000000001
44
0.0000000001
40
0
40
0
40
0
40
0
40
1
40
1
40
1
40
1
10
99.933128229777026
20
-34.819168281555179
30
0
10
100.6474983851115
20
-37.835416666666674
30
0
10
101.25604489644371
20
-40.878125000000011
30
0
10
101.91750322977704
20
-43.8943733851115
30
0
0
SPLINE
5
203
100
AcDbEntity
8
0
100
AcDbSpline
70
1064
71
3
72
8
73
4
74
0
42
0.000000001
43
0.0000000001
44
0.0000000001
40
0
40
0
40
0
40
0
40
1
40
1
40
1
40
1
10
101.91750322977704
20
-43.8943733851115
30
0
10
108.426246770223
20
-43.788541666666674
30
0
10
114.9349983851115
20
-44.185416666666669
30
0
10
121.44375000000002
20
-44.185416666666669
30
0
0
SPLINE
5
204
100
AcDbEntity
8
0
100
AcDbSpline
70
1064
71
3
72
8
73
4
74
0
42
0.000000001
43
0.0000000001
44
0.0000000001
40
0
40
0
40
0
40
0
40
1
40
1
40
1
40
1
10
121.44375000000002
20
-44.185416666666669
30
0
10
123.58687661488852
20
-44.132500807444259
30
0
10
125.70354328155518
20
-44.635207525889086
30
0
10
127.6879182815552
20
-45.349581718444831
30
0
0
SPLINE
5
205
100
AcDbEntity
8
0
100
AcDbSpline
70
1064
71
3
72
8
73
4
74
0
42
0.000000001
43
0.0000000001
44
0.0000000001
40
0
40
0
40
0
40
0
40
1
40
1
40
1
40
1
10
82.153125000000017
20
-44.502915859222426
30
0
10
87.841666666666669
20
-42.915415859222421
30
0
10
93.847711563110352
20
-43.841457525889084
30
0
10
99.668544896443692
20
-43.867917474110925
30
0
0
SPLINE
5
206
100
AcDbEntity
8
0
100
AcDbSpline
70
1064
71
3
72
8
73
4
74
0
42
0.000000001
43
0.0000000001
44
0.0000000001
40
0
40
0
40
0
40
0
40
1
40
1
40
1
40
1
10
99.668544896443692
20
-43.867917474110925
30
0
10
99.694996770223
20
-42.121665859222418
30
0
10
99.747916666666683
20
-40.375418281555184
30
0
10
99.774376614888524
20
-38.629166666666677
30
0
0
SPLINE
5
207
100
AcDbEntity
8
0
100
AcDbSpline
70
1064
71
3
72
8
73
4
74
0
42
0.000000001
43
0.0000000001
44
0.0000000001
40
0
40
0
40
0
40
0
40
1
40
1
40
1
40
1
10
99.774376614888524
20
-38.629166666666677
30
0
10
96.625836563110369
20
-40.216666666666676
30
0
10
93.106873385111513
20
-40.98395671844483
30
0
10
90.117084948221859
20
-42.83604005177817
30
0
0
SPLINE
5
208
100
AcDbEntity
8
0
100
AcDbSpline
70
1064
71
3
72
8
73
4
74
0
42
0.000000001
43
0.0000000001
44
0.0000000001
40
0
40
0
40
0
40
0
40
1
40
1
40
1
40
1
10
90.117084948221859
20
-42.83604005177817
30
0
10
91.651665051778167
20
-40.428334140777594
30
0
10
94.641461563110369
20
-39.581668281555181
30
0
10
96.440625000000026
20
-37.438541666666673
30
0
0
SPLINE
5
209
100
AcDbEntity
8
0
100
AcDbSpline
70
1064
71
3
72
8
73
4
74
0
42
0.000000001
43
0.0000000001
44
0.0000000001
40
0
40
0
40
0
40
0
40
1
40
1
40
1
40
1
10
156.97728843688967
20
-67.653957525889098
30
0
10
156.95083656311039
20
-67.468750000000014
30
0
10
156.87146479288739
20
-67.124790859222415
30
0
10
156.84499677022299
20
-66.939583333333346
30
0
0
SPLINE
5
210
100
AcDbEntity
8
0
100
AcDbSpline
70
1064
71
3
72
8
73
4
74
0
42
0.000000001
43
0.0000000001
44
0.0000000001
40
0
40
0
40
0
40
0
40
1
40
1
40
1
40
1
10
90.646251614888513
20
-67.653957525889098
30
0
10
94.059375000000017
20
-67.071875000000006
30
0
10
97.498958333333348
20
-67.177706718444824
30
0
10
100.93854166666668
20
-67.283542474110931
30
0
0
SPLINE
5
211
100
AcDbEntity
8
0
100
AcDbSpline
70
1064
71
3
72
8
73
4
74
0
42
0.000000001
43
0.0000000001
44
0.0000000001
40
0
40
0
40
0
40
0
40
1
40
1
40
1
40
1
10
100.93854166666668
20
-67.283542474110931
30
0
10
101.0443733851115
20
-68.500623385111496
30
0
10
101.15020510355633
20
-69.691248385111507
30
0
10
101.28249677022299
20
-70.908333333333346
30
0
0
SPLINE
5
212
100
AcDbEntity
8
0
100
AcDbSpline
70
1064
71
3
72
8
73
4
74
0
42
0.000000001
43
0.0000000001
44
0.0000000001
40
0
40
0
40
0
40
0
40
1
40
1
40
1
40
1
10
101.28249677022299
20
-70.908333333333346
30
0
10
95.567503229777031
20
-70.961253229777029
30
0
10
89.85250161488851
20
-70.855413436889663
30
0
10
84.137500000000017
20
-70.908333333333346
30
0
0
SPLINE
5
213
100
AcDbEntity
8
0
100
AcDbSpline
70
1064
71
3
72
8
73
4
74
0
42
0.000000001
43
0.0000000001
44
0.0000000001
40
0
40
0
40
0
40
0
40
1
40
1
40
1
40
1
10
84.137500000000017
20
-70.908333333333346
30
0
10
82.2060448964437
20
-70.881873385111504
30
0
10
80.301041666666677
20
-71.252288436889657
30
0
10
78.475418281555193
20
-71.781455103556326
30
0
0
LINE
5
214
100
AcDbEntity
8
0
100
AcDbLine
10
78.105003229777012
20
-71.569791666666688
30
0
11
78.316666666666663
21
-71.490419896443697
31
0
0
SPLINE
5
215
100
AcDbEntity
8
0
100
AcDbSpline
70
1064
71
3
72
8
73
4
74
0
42
0.000000001
43
0.0000000001
44
0.0000000001
40
0
40
0
40
0
40
0
40
1
40
1
40
1
40
1
10
78.316666666666677
20
-71.490419896443697
30
0
10
82.311876614888519
20
-69.850000000000009
30
0
10
86.333538436889654
20
-68.183128229777026
30
0
10
90.646251614888513
20
-67.653957525889098
30
0
0
SPLINE
5
216
100
AcDbEntity
8
0
100
AcDbSpline
70
1064
71
3
72
8
73
4
74
0
42
0.000000001
43
0.0000000001
44
0.0000000001
40
0
40
0
40
0
40
0
40
1
40
1
40
1
40
1
10
104.8279198964437
20
-67.442290051778173
30
0
10
110.78104489644369
20
-68.07728843688966
30
0
10
116.52249838511152
20
-69.74416828155519
30
0
10
122.34333171844484
20
-71.093544896443689
30
0
0
SPLINE
5
217
100
AcDbEntity
8
0
100
AcDbSpline
70
1064
71
3
72
8
73
4
74
0
42
0.000000001
43
0.0000000001
44
0.0000000001
40
0
40
0
40
0
40
0
40
1
40
1
40
1
40
1
10
122.34333171844484
20
-71.093544896443689
30
0
10
116.62833010355634
20
-71.199376614888521
30
0
10
110.88687661488854
20
-71.252288436889657
30
0
10
105.17187500000003
20
-71.119996770222997
30
0
0
SPLINE
5
218
100
AcDbEntity
8
0
100
AcDbSpline
70
1064
71
3
72
8
73
4
74
0
42
0.000000001
43
0.0000000001
44
0.0000000001
40
0
40
0
40
0
40
0
40
1
40
1
40
1
40
1
10
105.17187500000003
20
-71.119996770222997
30
0
10
105.03958333333335
20
-69.87645994822185
30
0
10
104.96021156311036
20
-68.659375000000011
30
0
10
104.8279198964437
20
-67.442290051778173
30
0
0
SPLINE
5
219
100
AcDbEntity
8
0
100
AcDbSpline
70
1064
71
3
72
8
73
4
74
0
42
0.000000001
43
0.0000000001
44
0.0000000001
40
0
40
0
40
0
40
0
40
1
40
1
40
1
40
1
10
78.105003229777026
20
-70.934793281555187
30
0
10
78.475418281555193
20
-70.74958171844483
30
0
10
78.68708171844483
20
-71.358128229777023
30
0
10
78.316666666666677
20
-71.490419896443697
30
0
0
SPLINE
5
220
100
AcDbEntity
8
0
100
AcDbSpline
70
1064
71
3
72
8
73
4
74
0
42
0.000000001
43
0.0000000001
44
0.0000000001
40
0
40
0
40
0
40
0
40
1
40
1
40
1
40
1
10
78.316666666666677
20
-71.490419896443697
30
0
10
77.946251614888524
20
-71.649163436889665
30
0
10
77.708128229777031
20
-71.040625000000006
30
0
10
78.105003229777026
20
-70.934793281555187
30
0
0
SPLINE
5
221
100
AcDbEntity
8
0
100
AcDbSpline
70
1064
71
3
72
8
73
4
74
0
42
0.000000001
43
0.0000000001
44
0.0000000001
40
0
40
0
40
0
40
0
40
1
40
1
40
1
40
1
10
111.12500000000003
20
-126.70895671844484
30
0
10
110.807496770223
20
-126.68249677022301
30
0
10
110.38416989644369
20
-126.57666505177816
30
0
10
110.30479005177817
20
-126.23270994822185
30
0
0
SPLINE
5
222
100
AcDbEntity
8
0
100
AcDbSpline
70
1064
71
3
72
8
73
4
74
0
42
0.000000001
43
0.0000000001
44
0.0000000001
40
0
40
0
40
0
40
0
40
1
40
1
40
1
40
1
10
249.13166020711265
20
-145.3885416666667
30
0
10
253.02103843688968
20
-142.34583333333336
30
0
10
257.30729166666669
20
-139.83229166666669
30
0
10
261.1172981262207
20
-136.68374354044599
30
0
0
SPLINE
5
223
100
AcDbEntity
8
0
100
AcDbSpline
70
1064
71
3
72
8
73
4
74
0
42
0.000000001
43
0.0000000001
44
0.0000000001
40
0
40
0
40
0
40
0
40
1
40
1
40
1
40
1
10
261.1172981262207
20
-136.68374354044599
30
0
10
254.02645187377937
20
-148.82812500000003
30
0
10
246.80333010355636
20
-160.8666666666667
30
0
10
239.42146479288741
20
-172.82583656311036
30
0
0
SPLINE
5
224
100
AcDbEntity
8
0
100
AcDbSpline
70
1064
71
3
72
8
73
4
74
0
42
0.000000001
43
0.0000000001
44
0.0000000001
40
0
40
0
40
0
40
0
40
1
40
1
40
1
40
1
10
239.42146479288741
20
-172.82583656311036
30
0
10
242.94041989644373
20
-163.77708333333334
30
0
10
246.06250000000003
20
-154.59603843688967
30
0
10
249.13166020711265
20
-145.3885416666667
30
0
0
SPLINE
5
225
100
AcDbEntity
8
0
100
AcDbSpline
70
1064
71
3
72
8
73
4
74
0
42
0.000000001
43
0.0000000001
44
0.0000000001
40
0
40
0
40
0
40
0
40
1
40
1
40
1
40
1
10
40.216666666666676
20
-167.03145510355631
30
0
10
40.719373385111496
20
-164.99416020711266
30
0
10
41.671875000000007
20
-163.11562500000002
30
0
10
42.306873385111494
20
-161.13125000000002
30
0
0
SPLINE
5
226
100
AcDbEntity
8
0
100
AcDbSpline
70
1064
71
3
72
8
73
4
74
0
42
0.000000001
43
0.0000000001
44
0.0000000001
40
0
40
0
40
0
40
0
40
1
40
1
40
1
40
1
10
42.306873385111494
20
-161.13125000000002
30
0
10
43.8943733851115
20
-156.4745897928874
30
0
10
44.317708333333343
20
-151.44750645955406
30
0
10
43.682709948221842
20
-146.5527147928874
30
0
0
SPLINE
5
227
100
AcDbEntity
8
0
100
AcDbSpline
70
1064
71
3
72
8
73
4
74
0
42
0.000000001
43
0.0000000001
44
0.0000000001
40
0
40
0
40
0
40
0
40
1
40
1
40
1
40
1
10
43.682709948221842
20
-146.5527147928874
30
0
10
43.365206718444831
20
-144.17146479288738
30
0
10
42.333333333333343
20
-141.94895833333337
30
0
10
41.883542474110925
20
-139.59416020711265
30
0
0
SPLINE
5
228
100
AcDbEntity
8
0
100
AcDbSpline
70
1064
71
3
72
8
73
4
74
0
42
0.000000001
43
0.0000000001
44
0.0000000001
40
0
40
0
40
0
40
0
40
1
40
1
40
1
40
1
10
211.56082687377932
20
-175.84207687377932
30
0
10
215.66186854044599
20
-171.95271479288738
30
0
10
219.41895510355636
20
-167.639993540446
30
0
10
224.02271156311036
20
-164.30625000000003
30
0
0
SPLINE
5
229
100
AcDbEntity
8
0
100
AcDbSpline
70
1064
71
3
72
8
73
4
74
0
42
0.000000001
43
0.0000000001
44
0.0000000001
40
0
40
0
40
0
40
0
40
1
40
1
40
1
40
1
10
224.02271156311036
20
-164.30625000000003
30
0
10
226.50978520711266
20
-170.65625
30
0
10
230.0022884368897
20
-176.58292312622075
30
0
10
233.28312822977705
20
-182.53604812622072
30
0
0
SPLINE
5
230
100
AcDbEntity
8
0
100
AcDbSpline
70
1064
71
3
72
8
73
4
74
0
42
0.000000001
43
0.0000000001
44
0.0000000001
40
0
40
0
40
0
40
0
40
1
40
1
40
1
40
1
10
233.28312822977705
20
-182.53604812622072
30
0
10
231.66916020711267
20
-182.58895187377931
30
0
10
230.08166020711263
20
-182.50958010355635
30
0
10
228.46770833333338
20
-182.6947916666667
30
0
0
SPLINE
5
231
100
AcDbEntity
8
0
100
AcDbSpline
70
1064
71
3
72
8
73
4
74
0
42
0.000000001
43
0.0000000001
44
0.0000000001
40
0
40
0
40
0
40
0
40
1
40
1
40
1
40
1
10
228.46770833333338
20
-182.6947916666667
30
0
10
219.948121770223
20
-183.88541666666669
30
0
10
211.45500322977705
20
-185.44646479288741
30
0
10
202.88249677022299
20
-186.2402147928874
30
0
0
SPLINE
5
232
100
AcDbEntity
8
0
100
AcDbSpline
70
1064
71
3
72
8
73
4
74
0
42
0.000000001
43
0.0000000001
44
0.0000000001
40
0
40
0
40
0
40
0
40
1
40
1
40
1
40
1
10
202.88249677022299
20
-186.2402147928874
30
0
10
205.3695865631104
20
-182.45666020711266
30
0
10
208.30645510355635
20
-178.99062500000002
30
0
10
211.56082687377932
20
-175.84207687377932
30
0
0
SPLINE
5
233
100
AcDbEntity
8
0
100
AcDbSpline
70
1064
71
3
72
8
73
4
74
0
42
0.000000001
43
0.0000000001
44
0.0000000001
40
0
40
0
40
0
40
0
40
1
40
1
40
1
40
1
10
155.15167312622071
20
-177.58833656311037
30
0
10
157.9297981262207
20
-177.48249677022301
30
0
10
160.70792312622072
20
-177.32375322977705
30
0
10
163.51250000000005
20
-177.24438145955406
30
0
0
SPLINE
5
234
100
AcDbEntity
8
0
100
AcDbSpline
70
1064
71
3
72
8
73
4
74
0
42
0.000000001
43
0.0000000001
44
0.0000000001
40
0
40
0
40
0
40
0
40
1
40
1
40
1
40
1
10
163.51250000000005
20
-177.24438145955406
30
0
10
163.90937500000004
20
-181.21313145955406
30
0
10
164.30625000000003
20
-185.18188145955406
30
0
10
164.59728520711266
20
-189.17708333333337
30
0
0
SPLINE
5
235
100
AcDbEntity
8
0
100
AcDbSpline
70
1064
71
3
72
8
73
4
74
0
42
0.000000001
43
0.0000000001
44
0.0000000001
40
0
40
0
40
0
40
0
40
1
40
1
40
1
40
1
10
164.59728520711266
20
-189.17708333333337
30
0
10
157.63874677022301
20
-191.58478520711267
30
0
10
150.44207687377931
20
-193.25167312622074
30
0
10
143.24542312622074
20
-194.83917312622071
30
0
0
SPLINE
5
236
100
AcDbEntity
8
0
100
AcDbSpline
70
1064
71
3
72
8
73
4
74
0
42
0.000000001
43
0.0000000001
44
0.0000000001
40
0
40
0
40
0
40
0
40
1
40
1
40
1
40
1
10
143.24542312622074
20
-194.83917312622071
30
0
10
137.4510416666667
20
-196.1620897928874
30
0
10
131.55083656311038
20
-196.85000000000002
30
0
10
125.67708333333336
20
-197.64375000000001
30
0
0
SPLINE
5
237
100
AcDbEntity
8
0
100
AcDbSpline
70
1064
71
3
72
8
73
4
74
0
42
0.000000001
43
0.0000000001
44
0.0000000001
40
0
40
0
40
0
40
0
40
1
40
1
40
1
40
1
10
125.67708333333336
20
-197.64375000000001
30
0
10
122.74020671844484
20
-198.01417312622075
30
0
10
119.80333010355633
20
-198.56979166666667
30
0
10
116.81354166666668
20
-198.6756314595541
30
0
0
SPLINE
5
238
100
AcDbEntity
8
0
100
AcDbSpline
70
1064
71
3
72
8
73
4
74
0
42
0.000000001
43
0.0000000001
44
0.0000000001
40
0
40
0
40
0
40
0
40
1
40
1
40
1
40
1
10
116.81354166666668
20
-198.6756314595541
30
0
10
116.49603843688966
20
-194.44229812622072
30
0
10
116.12562338511151
20
-190.2089647928874
30
0
10
115.64937661488852
20
-186.00208333333336
30
0
0
SPLINE
5
239
100
AcDbEntity
8
0
100
AcDbSpline
70
1064
71
3
72
8
73
4
74
0
42
0.000000001
43
0.0000000001
44
0.0000000001
40
0
40
0
40
0
40
0
40
1
40
1
40
1
40
1
10
115.64937661488852
20
-186.00208333333336
30
0
10
124.08958333333334
20
-186.39895833333338
30
0
10
132.55625000000003
20
-186.21374677022303
30
0
10
140.94354489644371
20
-187.43083979288741
30
0
0
SPLINE
5
240
100
AcDbEntity
8
0
100
AcDbSpline
70
1064
71
3
72
8
73
4
74
0
42
0.000000001
43
0.0000000001
44
0.0000000001
40
0
40
0
40
0
40
0
40
1
40
1
40
1
40
1
10
140.94354489644371
20
-187.43083979288741
30
0
10
145.30916989644371
20
-188.27749354044599
30
0
10
149.72771479288738
20
-188.78020833333338
30
0
10
154.09333979288738
20
-189.67979812622073
30
0
0
SPLINE
5
241
100
AcDbEntity
8
0
100
AcDbSpline
70
1064
71
3
72
8
73
4
74
0
42
0.000000001
43
0.0000000001
44
0.0000000001
40
0
40
0
40
0
40
0
40
1
40
1
40
1
40
1
10
154.09333979288738
20
-189.67979812622073
30
0
10
155.49562822977703
20
-185.816871770223
30
0
10
155.46916020711265
20
-181.63645833333337
30
0
10
155.15167312622071
20
-177.58833656311037
30
0
0
SPLINE
5
242
100
AcDbEntity
8
0
100
AcDbSpline
70
1064
71
3
72
8
73
4
74
0
42
0.000000001
43
0.0000000001
44
0.0000000001
40
0
40
0
40
0
40
0
40
1
40
1
40
1
40
1
10
202.19458656311036
20
-187.40437177022301
30
0
10
209.629371770223
20
-186.71646156311039
30
0
10
217.01125322977705
20
-185.34062500000002
30
0
10
224.44603843688967
20
-184.46750322977704
30
0
0
SPLINE
5
243
100
AcDbEntity
8
0
100
AcDbSpline
70
1064
71
3
72
8
73
4
74
0
42
0.000000001
43
0.0000000001
44
0.0000000001
40
0
40
0
40
0
40
0
40
1
40
1
40
1
40
1
10
224.44603843688967
20
-184.46750322977704
30
0
10
216.53500645955407
20
-186.02853520711264
30
0
10
208.43874677022302
20
-186.84875322977703
30
0
10
200.79229812622074
20
-189.468118540446
30
0
0
SPLINE
5
244
100
AcDbEntity
8
0
100
AcDbSpline
70
1064
71
3
72
8
73
4
74
0
42
0.000000001
43
0.0000000001
44
0.0000000001
40
0
40
0
40
0
40
0
40
1
40
1
40
1
40
1
10
200.79229812622074
20
-189.468118540446
30
0
10
201.24207687377933
20
-188.78020833333338
30
0
10
201.71833979288738
20
-188.09229812622075
30
0
10
202.19458656311036
20
-187.40437177022301
30
0
0
SPLINE
5
245
100
AcDbEntity
8
0
100
AcDbSpline
70
1064
71
3
72
8
73
4
74
0
42
0.000000001
43
0.0000000001
44
0.0000000001
40
0
40
0
40
0
40
0
40
1
40
1
40
1
40
1
10
71.702083333333334
20
-189.23000322977703
30
0
10
84.904790051778178
20
-186.82228520711266
30
0
10
98.345628229777034
20
-185.5258365631104
30
0
10
111.78645833333334
20
-186.08145510355632
30
0
0
SPLINE
5
246
100
AcDbEntity
8
0
100
AcDbSpline
70
1064
71
3
72
8
73
4
74
0
42
0.000000001
43
0.0000000001
44
0.0000000001
40
0
40
0
40
0
40
0
40
1
40
1
40
1
40
1
10
111.78645833333334
20
-186.08145510355632
30
0
10
112.15687338511151
20
-190.44708010355635
30
0
10
112.52728843688968
20
-194.83917312622071
30
0
10
112.95062338511151
20
-199.23125000000002
30
0
0
SPLINE
5
247
100
AcDbEntity
8
0
100
AcDbSpline
70
1064
71
3
72
8
73
4
74
0
42
0.000000001
43
0.0000000001
44
0.0000000001
40
0
40
0
40
0
40
0
40
1
40
1
40
1
40
1
10
112.95062338511151
20
-199.23125000000002
30
0
10
102.57896156311035
20
-200.47479489644371
30
0
10
92.207291666666691
20
-201.66541989644372
30
0
10
81.756250000000023
20
-202.00937500000003
30
0
0
SPLINE
5
248
100
AcDbEntity
8
0
100
AcDbSpline
70
1064
71
3
72
8
73
4
74
0
42
0.000000001
43
0.0000000001
44
0.0000000001
40
0
40
0
40
0
40
0
40
1
40
1
40
1
40
1
10
81.756250000000023
20
-202.00937500000003
30
0
10
78.581250000000011
20
-201.93000322977707
30
0
10
75.432709948221856
20
-201.85063145955408
30
0
10
72.257709948221859
20
-201.85063145955408
30
0
0
SPLINE
5
249
100
AcDbEntity
8
0
100
AcDbSpline
70
1064
71
3
72
8
73
4
74
0
42
0.000000001
43
0.0000000001
44
0.0000000001
40
0
40
0
40
0
40
0
40
1
40
1
40
1
40
1
10
72.257709948221859
20
-201.85063145955408
30
0
10
72.257709948221859
20
-197.64375000000001
30
0
10
71.993126614888524
20
-193.43686854044597
30
0
10
71.702083333333334
20
-189.23000322977703
30
0
0
SPLINE
5
250
100
AcDbEntity
8
0
100
AcDbSpline
70
1064
71
3
72
8
73
4
74
0
42
0.000000001
43
0.0000000001
44
0.0000000001
40
0
40
0
40
0
40
0
40
1
40
1
40
1
40
1
10
190.36770833333335
20
-188.43625322977704
30
0
10
193.59562822977705
20
-188.06583010355635
30
0
10
196.82354812622071
20
-187.96000645955405
30
0
10
200.05145187377934
20
-187.61603520711265
30
0
0
SPLINE
5
251
100
AcDbEntity
8
0
100
AcDbSpline
70
1064
71
3
72
8
73
4
74
0
42
0.000000001
43
0.0000000001
44
0.0000000001
40
0
40
0
40
0
40
0
40
1
40
1
40
1
40
1
10
200.05145187377934
20
-187.61603520711265
30
0
10
199.49583333333337
20
-188.56854489644371
30
0
10
198.91374677022301
20
-189.49458656311037
30
0
10
198.35812822977704
20
-190.44708010355635
30
0
0
SPLINE
5
252
100
AcDbEntity
8
0
100
AcDbSpline
70
1064
71
3
72
8
73
4
74
0
42
0.000000001
43
0.0000000001
44
0.0000000001
40
0
40
0
40
0
40
0
40
1
40
1
40
1
40
1
10
198.35812822977704
20
-190.44708010355635
30
0
10
195.71229489644369
20
-189.73270187377932
30
0
10
192.98708979288739
20
-189.25645510355633
30
0
10
190.36770833333335
20
-188.43625322977704
30
0
0
SPLINE
5
253
100
AcDbEntity
8
0
100
AcDbSpline
70
1064
71
3
72
8
73
4
74
0
42
0.000000001
43
0.0000000001
44
0.0000000001
40
0
40
0
40
0
40
0
40
1
40
1
40
1
40
1
10
132.953125
20
-237.99270833333338
30
0
10
132.90020510355635
20
-237.80749677022303
30
0
10
132.82083333333335
20
-237.46354166666669
30
0
10
132.76791343688967
20
-237.27833010355636
30
0
0
SPLINE
5
254
100
AcDbEntity
8
0
100
AcDbSpline
70
1064
71
3
72
8
73
4
74
0
42
0.000000001
43
0.0000000001
44
0.0000000001
40
0
40
0
40
0
40
0
40
1
40
1
40
1
40
1
10
98.610211563110369
20
-248.76125322977708
30
0
10
98.477919896443694
20
-248.2850064595541
30
0
10
97.895833333333343
20
-247.59708010355635
30
0
10
98.610211563110369
20
-247.30604489644372
30
0
0
LINE
5
255
100
AcDbEntity
8
0
100
AcDbLine
10
61.515625000000007
20
-202.32687822977707
30
0
11
65
21
-202.32687822977707
31
0
0
LINE
5
256
100
AcDbEntity
8
0
100
AcDbLine
10
65
20
-202.32687822977707
30
0
11
69.294373385111498
21
-201.82416343688968
31
0
0
LINE
5
257
100
AcDbEntity
8
0
100
AcDbLine
10
41.212160650889082
20
-167.46351387336264
30
0
11
40.216666666666676
21
-167.03145510355628
31
0
0
LINE
5
258
100
AcDbEntity
8
0
100
AcDbLine
10
44.95270671844483
20
-114.96145833333337
30
0
11
43.418126614888521
21
-116.62833010355634
31
0
0
LINE
5
259
100
AcDbEntity
8
0
100
AcDbLine
10
257.22791989644372
20
-134.46125322977701
30
0
11
260.93208656311037
21
-133.37645994822185
31
0
0
LINE
5
260
100
AcDbEntity
8
0
100
AcDbLine
10
45.614165051778166
20
-230.90187822977703
30
0
11
47.000000700354576
21
-230.90187822977703
31
0
0
LINE
5
261
100
AcDbEntity
8
0
100
AcDbLine
10
180
20
-230.90187822977703
30
0
11
180.35370631128788
21
-230.90187822977703
31
0
0
SPLINE
5
262
100
AcDbEntity
8
0
100
AcDbSpline
70
1064
71
3
72
17
73
13
74
0
42
0.000000001
43
0.0000000001
44
0.0000000001
40
0
40
0
40
0
40
0
40
1
40
1
40
1
40
2.2543565637706173
40
2.2543565637706173
40
2.2543565637706173
40
5.1544454493332221
40
5.1544454493332221
40
5.1544454493332221
40
5.4344127241014126
40
5.4344127241014126
40
5.4344127241014126
40
5.4344127241014126
10
202.90896479288739
20
-189.62687822977705
30
0
10
201.87708333333336
20
-189.99728520711267
30
0
10
200.36895510355635
20
-189.91791343688965
30
0
10
199.81333656311037
20
-191.05561854044598
30
0
10
197.97849645735781
20
-194.81270510355637
30
0
10
196.14365635160522
20
-198.56979166666667
30
0
10
194.3088162458526
20
-202.32687822977704
30
0
10
190.06664177077184
20
-211.01331181531177
30
0
10
185.82446729569114
20
-219.69974540084644
30
0
10
181.58229282061043
20
-228.38617898638108
30
0
10
181.17276398416965
20
-229.22474540084639
30
0
10
180.76323514772881
20
-230.06331181531175
30
0
10
180.35370631128797
20
-230.90187822977708
30
0
0
SPLINE
5
263
100
AcDbEntity
8
0
100
AcDbSpline
70
1064
71
3
72
11
73
7
74
0
42
0.000000001
43
0.0000000001
44
0.0000000001
40
0
40
0
40
0
40
0
40
1
40
1
40
1
40
1.1710705216254933
40
1.1710705216254933
40
1.1710705216254933
40
1.1710705216254933
10
210.31729812622075
20
-169.83604812622073
30
0
10
212.93666343688969
20
-168.69832687377934
30
0
10
215.47667312622076
20
-167.40187822977703
30
0
10
218.30770187377934
20
-166.95208333333338
30
0
10
218.87087318672872
20
-166.8626064664534
30
0
10
219.43404449967807
20
-166.77312959957345
30
0
10
219.99721581262745
20
-166.68365273269347
30
0
0
SPLINE
5
264
100
AcDbEntity
8
0
100
AcDbSpline
70
1064
71
3
72
8
73
4
74
0
42
0.000000001
43
0.0000000001
44
0.0000000001
40
0.84950603465355534
40
0.84950603465355534
40
0.84950603465355534
40
0.84950603465355534
40
1
40
1
40
1
40
1
10
219.99721581274397
20
-166.68365273258587
30
0
10
220.57048340252521
20
-166.15497545582059
30
0
10
221.13692672958325
20
-165.61905545344433
30
0
10
221.69438145955408
20
-165.07354812622071
30
0
0
LINE
5
265
100
AcDbEntity
8
0
100
AcDbLine
10
180
20
-230.90187822977703
30
0
11
180
21
-265.00000022977707
31
0
0
LINE
5
266
100
AcDbEntity
8
0
100
AcDbLine
10
47.000000700354576
20
-265.00000022977707
30
0
11
47.000000700354576
21
-230.90187822977703
31
0
0
LINE
5
267
100
AcDbEntity
8
0
100
AcDbLine
10
47.000000700354576
20
-265.00000022977707
30
0
11
180
21
-265.00000022977707
31
0
0
ENDSEC
0
SECTION
2
OBJECTS
0
DICTIONARY
5
C
100
AcDbDictionary
3
ACAD_GROUP
350
D
3
ACAD_MLINESTYLE
350
17
0
DICTIONARY
5
D
100
AcDbDictionary
0
DICTIONARY
5
1A
330
C
100
AcDbDictionary
0
DICTIONARY
5
17
100
AcDbDictionary
0
ENDSEC
0
EOF
