0
SECTION
2
HEADER
9
$INSUNITS
70
4
9
$ACADVER
1
AC1014
9
$HANDSEED
5
FFFF
0
ENDSEC
0
SECTION
2
TABLES
0
TABLE
2
VPORT
5
8
100
AcDbSymbolTable
0
ENDTAB
0
TABLE
2
LTYPE
5
5
100
AcDbSymbolTable
0
LTYPE
5
14
100
AcDbSymbolTableRecord
100
AcDbLinetypeTableRecord
2
BYBLOCK
70
0
0
LTYPE
5
15
100
AcDbSymbolTableRecord
100
AcDbLinetypeTableRecord
2
BYLAYER
70
0
0
ENDTAB
0
TABLE
2
LAYER
5
2
100
AcDbSymbolTable
70
2
0
LAYER
5
50
100
AcDbSymbolTableRecord
100
AcDbLayerTableRecord
2
0
70
0
6
CONTINUOUS
0
ENDTAB
0
TABLE
2
STYLE
5
3
100
AcDbSymbolTable
70
1
0
STYLE
5
11
100
AcDbSymbolTableRecord
100
AcDbTextStyleTableRecord
2
STANDARD
70
0
0
ENDTAB
0
TABLE
2
VIEW
5
6
100
AcDbSymbolTable
70
0
0
ENDTAB
0
TABLE
2
UCS
5
7
100
AcDbSymbolTable
70
0
0
ENDTAB
0
TABLE
2
APPID
5
9
100
AcDbSymbolTable
70
2
0
APPID
5
12
100
AcDbSymbolTableRecord
100
AcDbRegAppTableRecord
2
ACAD
70
0
0
ENDTAB
0
TABLE
2
DIMSTYLE
5
A
100
AcDbSymbolTable
70
1
0
ENDTAB
0
TABLE
2
BLOCK_RECORD
5
1
100
AcDbSymbolTable
70
1
0
BLOCK_RECORD
5
1F
100
AcDbSymbolTableRecord
100
AcDbBlockTableRecord
2
*MODEL_SPACE
0
BLOCK_RECORD
5
1B
100
AcDbSymbolTableRecord
100
AcDbBlockTableRecord
2
*PAPER_SPACE
0
ENDTAB
0
ENDSEC
0
SECTION
2
BLOCKS
0
BLOCK
5
20
100
AcDbEntity
100
AcDbBlockBegin
2
*MODEL_SPACE
0
ENDBLK
5
21
100
AcDbEntity
100
AcDbBlockEnd
0
BLOCK
5
1C
100
AcDbEntity
100
AcDbBlockBegin
2
*PAPER_SPACE
0
ENDBLK
5
1D
100
AcDbEntity
100
AcDbBlockEnd
0
ENDSEC
0
SECTION
2
ENTITIES
0
CIRCLE
5
100
100
AcDbEntity
8
0
100
AcDbCircle
10
0
20
0
30
0
40
125
210
0
220
0
230
1
0
CIRCLE
5
101
100
AcDbEntity
8
0
100
AcDbCircle
10
0
20
110
30
0
40
4.9999999999999947
210
0
220
0
230
1
0
LINE
5
102
100
AcDbEntity
8
0
100
AcDbLine
10
-15.000000223517418
20
-123.00000183284283
30
0
11
-15.000000223517427
21
-114.00000169873239
31
0
0
LINE
5
103
100
AcDbEntity
8
0
100
AcDbLine
10
15.000000223517418
20
-123.00000183284283
30
0
11
15.000000223517427
21
-114.62193441417882
31
0
0
LWPOLYLINE
5
104
100
AcDbEntity
8
0
100
AcDbPolyline
90
7
70
1
43
0.0
10
-14.503849640118194
20
-117.6268367579288
10
-14.503849640118194
20
-118.0369930079288
10
-12.133244171368194
20
-119.0501766016788
10
-12.133244171368194
20
-118.6131648829288
10
-14.013126983868194
20
-117.8343562891788
10
-12.133244171368194
20
-117.0628719141788
10
-12.133244171368194
20
-116.6258601954288
0
LWPOLYLINE
5
105
100
AcDbEntity
8
0
100
AcDbPolyline
90
4
70
1
43
0.0
10
-11.698673858868194
20
-118.0858211329288
10
-11.698673858868194
20
-118.5277156641788
10
-10.348576202618194
20
-118.5277156641788
10
-10.348576202618194
20
-118.0858211329288
0
LINE
5
106
100
AcDbEntity
8
0
100
AcDbLine
10
-9.8065840151181938
20
-119.6019344141788
30
0
11
-9.8065840151181938
21
-116.0228328516788
31
0
0
LINE
5
107
100
AcDbEntity
8
0
100
AcDbLine
10
-9.8065840151181938
20
-116.0228328516788
30
0
11
-8.4564863588681938
21
-116.0228328516788
31
0
0
SPLINE
5
108
100
AcDbEntity
8
0
100
AcDbSpline
70
0
71
3
72
9
73
5
74
3
42
0.000000001
43
0.0000000001
44
0.0000000001
40
0
40
0
40
0
40
0
40
0.031444717780703006
40
0.054597324478795992
40
0.054597324478795992
40
0.054597324478795992
40
0.054597324478795992
10
-8.4564863588681938
20
-116.0228328516788
30
0
10
-8.3515349039771039
20
-116.02315941661863
30
0
10
-8.1693081567958341
20
-116.02372642988004
30
0
10
-7.9886590439189487
20
-116.04710050214624
30
0
10
-7.9120527651181938
20
-116.0570125391788
30
0
11
-8.4564863588681938
21
-116.0228328516788
31
0
11
-8.1421553041806938
21
-116.0313777735538
31
0
11
-7.9120527651181938
21
-116.0570125391788
31
0
0
SPLINE
5
109
100
AcDbEntity
8
0
100
AcDbSpline
70
0
71
3
72
9
73
5
74
3
42
0.000000001
43
0.0000000001
44
0.0000000001
40
0
40
0
40
0
40
0
40
0.025056344107472314
40
0.047536782001819912
40
0.047536782001819912
40
0.047536782001819912
40
0.047536782001819912
10
-7.9120527651181938
20
-116.0570125391788
30
0
10
-7.8295386408894965
20
-116.07374651348499
30
0
10
-7.6729932199491415
20
-116.10549413337738
30
0
10
-7.5352824892178845
20
-116.18612026944385
30
0
10
-7.4701582338681938
20
-116.2242488673038
30
0
11
-7.9120527651181938
21
-116.0570125391788
31
0
11
-7.6697431948056938
21
-116.12079427746005
31
0
11
-7.4701582338681938
21
-116.2242488673038
31
0
0
SPLINE
5
110
100
AcDbEntity
8
0
100
AcDbSpline
70
0
71
3
72
9
73
5
74
3
42
0.000000001
43
0.0000000001
44
0.0000000001
40
0
40
0
40
0
40
0
40
0.021856935739927228
40
0.045281597356838552
40
0.045281597356838552
40
0.045281597356838552
40
0.045281597356838552
10
-7.4701582338681938
20
-116.2242488673038
30
0
10
-7.4130716269155386
20
-116.27067146620325
30
0
10
-7.2948037790682241
20
-116.36684640383564
30
0
10
-7.22131140301566
20
-116.50054441821842
30
0
10
-7.1832929994931938
20
-116.5697078516788
30
0
11
-7.4701582338681938
21
-116.2242488673038
31
0
11
-7.3093305971494438
21
-116.37225912121005
31
0
11
-7.1832929994931938
21
-116.5697078516788
31
0
0
SPLINE
5
111
100
AcDbEntity
8
0
100
AcDbSpline
70
0
71
3
72
9
73
5
74
3
42
0.000000001
43
0.0000000001
44
0.0000000001
40
0
40
0
40
0
40
0
40
0.024698224967282956
40
0.050355088146985749
40
0.050355088146985749
40
0.050355088146985749
40
0.050355088146985749
10
-7.1832929994931938
20
-116.5697078516788
30
0
10
-7.1516088008400658
20
-116.64640900807369
30
0
10
-7.0870106113686218
20
-116.80278840361147
30
0
10
-7.0788224456115039
20
-116.97184936602675
30
0
10
-7.0746504213681938
20
-117.0579891016788
30
0
11
-7.1832929994931938
21
-116.5697078516788
31
0
11
-7.1018110658994438
21
-116.8028621485538
31
0
11
-7.0746504213681938
21
-117.0579891016788
31
0
0
SPLINE
5
112
100
AcDbEntity
8
0
100
AcDbSpline
70
0
71
3
72
9
73
5
74
3
42
0.000000001
43
0.0000000001
44
0.0000000001
40
0
40
0
40
0
40
0
40
0.04276606047606852
40
0.084101294858152681
40
0.084101294858152681
40
0.084101294858152681
40
0.084101294858152681
10
-7.0746504213681938
20
-117.0579891016788
30
0
10
-7.0859105439865289
20
-117.20338992775673
30
0
10
-7.1080540587718923
20
-117.4893268976453
30
0
10
-7.2804475136404978
20
-117.7182030521884
30
0
10
-7.3651777651181938
20
-117.8306941798038
30
0
11
-7.0746504213681938
21
-117.0579891016788
31
0
11
-7.1472822573056938
21
-117.47943685558505
31
0
11
-7.3651777651181938
21
-117.8306941798038
31
0
0
SPLINE
5
113
100
AcDbEntity
8
0
100
AcDbSpline
70
0
71
3
72
9
73
5
74
3
42
0.000000001
43
0.0000000001
44
0.0000000001
40
0
40
0
40
0
40
0
40
0.047165457538233396
40
0.11185910269830128
40
0.11185910269830128
40
0.11185910269830128
40
0.11185910269830128
10
-7.3651777651181938
20
-117.8306941798038
30
0
10
-7.4968376563513095
20
-117.92234883502624
30
0
10
-7.8090864516217504
20
-118.13971993723581
30
0
10
-8.1929659653765885
20
-118.14424133910899
30
0
10
-8.4149824526181938
20
-118.1468562891788
30
0
11
-7.3651777651181938
21
-117.8306941798038
31
0
11
-7.7728926088681938
21
-118.06781576183505
31
0
11
-8.4149824526181938
21
-118.1468562891788
31
0
0
LINE
5
114
100
AcDbEntity
8
0
100
AcDbLine
10
-8.4149824526181938
20
-118.14685628917879
30
0
11
-9.3329512026181938
21
-118.1468562891788
31
0
0
LINE
5
115
100
AcDbEntity
8
0
100
AcDbLine
10
-9.3329512026181938
20
-118.1468562891788
30
0
11
-9.3329512026181938
21
-119.6019344141788
31
0
0
LINE
5
116
100
AcDbEntity
8
0
100
AcDbLine
10
-9.3329512026181938
20
-119.6019344141788
30
0
11
-9.8065840151181938
21
-119.6019344141788
31
0
0
LINE
5
117
100
AcDbEntity
8
0
100
AcDbLine
10
-9.3329512026181938
20
-117.7244930079288
30
0
11
-8.4076582338681938
21
-117.7244930079288
31
0
0
SPLINE
5
118
100
AcDbEntity
8
0
100
AcDbSpline
70
0
71
3
72
9
73
5
74
3
42
0.000000001
43
0.0000000001
44
0.0000000001
40
0
40
0
40
0
40
0
40
0.039477480556277186
40
0.068411299217522953
40
0.068411299217522953
40
0.068411299217522953
40
0.068411299217522953
10
-8.4076582338681938
20
-117.7244930079288
30
0
10
-8.2731338668296814
20
-117.72296186621453
30
0
10
-8.0400139565456321
20
-117.72030852075068
30
0
10
-7.8402786510532172
20
-117.60314683675736
30
0
10
-7.7558027651181938
20
-117.5535945704288
30
0
11
-8.4076582338681938
21
-117.7244930079288
31
0
11
-8.0152021791806938
21
-117.6817683985538
31
0
11
-7.7558027651181938
21
-117.5535945704288
31
0
0
SPLINE
5
119
100
AcDbEntity
8
0
100
AcDbSpline
70
0
71
3
72
9
73
5
74
3
42
0.000000001
43
0.0000000001
44
0.0000000001
40
0
40
0
40
0
40
0
40
0.025146039940323175
40
0.053092011183959578
40
0.053092011183959578
40
0.053092011183959578
40
0.053092011183959578
10
-7.7558027651181938
20
-117.5535945704288
30
0
10
-7.6995911582859753
20
-117.48834721797286
30
0
10
-7.5809089615787792
20
-117.35058742857714
30
0
10
-7.5691311450003571
20
-117.16848863743679
30
0
10
-7.5629316713681938
20
-117.0726375391788
30
0
11
-7.7558027651181938
21
-117.5535945704288
31
0
11
-7.6111494448056938
21
-117.3479060938663
31
0
11
-7.5629316713681938
21
-117.0726375391788
31
0
0
SPLINE
5
120
100
AcDbEntity
8
0
100
AcDbSpline
70
0
71
3
72
9
73
5
74
3
42
0.000000001
43
0.0000000001
44
0.0000000001
40
0
40
0
40
0
40
0
40
0.021035844301041242
40
0.040594969383079035
40
0.040594969383079035
40
0.040594969383079035
40
0.040594969383079035
10
-7.5629316713681938
20
-117.0726375391788
30
0
10
-7.5669346381093554
20
-117.00151358732661
30
0
10
-7.574659562765258
20
-116.86425859501328
30
0
10
-7.6433575691300355
20
-116.74538886402586
30
0
10
-7.6764570619931938
20
-116.6881160548038
30
0
11
-7.5629316713681938
21
-117.0726375391788
31
0
11
-7.5913130190244438
21
-116.86420248058505
31
0
11
-7.6764570619931938
21
-116.6881160548038
31
0
0
SPLINE
5
121
100
AcDbEntity
8
0
100
AcDbSpline
70
0
71
3
72
9
73
5
74
3
42
0.000000001
43
0.0000000001
44
0.0000000001
40
0
40
0
40
0
40
0
40
0.018687774799712238
40
0.0371868147759504
40
0.0371868147759504
40
0.0371868147759504
40
0.0371868147759504
10
-7.6764570619931938
20
-116.6881160548038
30
0
10
-7.7171413566609806
20
-116.63938283746828
30
0
10
-7.7980990600963027
20
-116.5424085777763
30
0
10
-7.9165863585915206
20
-116.49868516533799
30
0
10
-7.9755293276181938
20
-116.4769344141788
30
0
11
-7.6764570619931938
21
-116.6881160548038
31
0
11
-7.8079878237119438
21
-116.55536458996005
31
0
11
-7.9755293276181938
21
-116.4769344141788
31
0
0
SPLINE
5
122
100
AcDbEntity
8
0
100
AcDbSpline
70
0
71
3
72
9
73
5
74
3
42
0.000000001
43
0.0000000001
44
0.0000000001
40
0
40
0
40
0
40
0
40
0.017194373750344456
40
0.044366605631685388
40
0.044366605631685388
40
0.044366605631685388
40
0.044366605631685388
10
-7.9755293276181938
20
-116.4769344141788
30
0
10
-8.0321898171763433
20
-116.46778662620748
30
0
10
-8.178390756601333
20
-116.44418260856671
30
0
10
-8.326633134446249
20
-116.44481117113824
30
0
10
-8.4174238588681938
20
-116.4451961329288
30
0
11
-7.9755293276181938
21
-116.4769344141788
31
0
11
-8.1458174135556938
21
-116.4531307032413
31
0
11
-8.4174238588681938
21
-116.4451961329288
31
0
0
LINE
5
123
100
AcDbEntity
8
0
100
AcDbLine
10
-8.4174238588681956
20
-116.4451961329288
30
0
11
-9.3329512026181938
21
-116.4451961329288
31
0
0
LINE
5
124
100
AcDbEntity
8
0
100
AcDbLine
10
-9.3329512026181938
20
-116.4451961329288
30
0
11
-9.3329512026181938
21
-117.7244930079288
31
0
0
LWPOLYLINE
5
125
100
AcDbEntity
8
0
100
AcDbPolyline
90
6
70
1
43
0.0
10
-6.4911543276181938
20
-116.0228328516788
10
-6.4911543276181938
20
-119.6019344141788
10
-4.2548262026181938
20
-119.6019344141788
10
-4.2548262026181938
20
-119.1795711329288
10
-6.0175215151181938
20
-119.1795711329288
10
-6.0175215151181938
20
-116.0228328516788
0
LWPOLYLINE
5
126
100
AcDbEntity
8
0
100
AcDbPolyline
90
8
70
1
43
0.0
10
-2.7094160463681938
20
-116.0228328516788
10
-4.0839277651181938
20
-119.6019344141788
10
-3.5809980776181938
20
-119.6019344141788
10
-3.1879316713681938
20
-118.5179500391788
10
-1.6913496401181938
20
-118.5179500391788
10
-1.2738691713681938
20
-119.6019344141788
10
-0.73431839011819378
20
-119.6019344141788
10
-2.1991621401181938
20
-116.0228328516788
0
LINE
5
127
100
AcDbEntity
8
0
100
AcDbLine
10
-3.0512129213681938
20
-118.1322078516788
30
0
11
-1.8378340151181938
21
-118.1322078516788
31
0
0
LINE
5
128
100
AcDbEntity
8
0
100
AcDbLine
10
-1.8378340151181938
20
-118.1322078516788
30
0
11
-2.2113691713681938
21
-117.1409969141788
31
0
0
SPLINE
5
129
100
AcDbEntity
8
0
100
AcDbSpline
70
0
71
3
72
9
73
5
74
3
42
0.000000001
43
0.0000000001
44
0.0000000001
40
0
40
0
40
0
40
0
40
0.043750415527550282
40
0.078457261645096935
40
0.078457261645096935
40
0.078457261645096935
40
0.078457261645096935
10
-2.2113691713681938
20
-117.1409969141788
30
0
10
-2.2625530051651666
20
-117.00439478456025
30
0
10
-2.3543405548783713
20
-116.75942730492542
30
0
10
-2.4312522720105489
20
-116.50940905472586
30
0
10
-2.4652754213681938
20
-116.3988094141788
30
0
11
-2.2113691713681938
21
-117.1409969141788
31
0
11
-2.3602949526181938
21
-116.7296199610538
31
0
11
-2.4652754213681938
21
-116.3988094141788
31
0
0
SPLINE
5
130
100
AcDbEntity
8
0
100
AcDbSpline
70
0
71
3
72
9
73
5
74
3
42
0.000000001
43
0.0000000001
44
0.0000000001
40
0
40
0
40
0
40
0
40
0.035277528324938995
40
0.071082074460286193
40
0.071082074460286193
40
0.071082074460286193
40
0.071082074460286193
10
-2.4652754213681938
20
-116.3988094141788
30
0
10
-2.490553410772316
20
-116.51376520520176
30
0
10
-2.541487022347364
20
-116.74539413401648
30
0
10
-2.6190682828028389
20
-116.96951293244322
30
0
10
-2.6581465151181938
20
-117.0824031641788
30
0
11
-2.4652754213681938
21
-116.3988094141788
31
0
11
-2.5476728823056938
21
-116.7418269923038
31
0
11
-2.6581465151181938
21
-117.0824031641788
31
0
0
LINE
5
131
100
AcDbEntity
8
0
100
AcDbLine
10
-2.6581465151181938
20
-117.0824031641788
30
0
11
-3.0512129213681938
21
-118.1322078516788
31
0
0
LWPOLYLINE
5
132
100
AcDbEntity
8
0
100
AcDbPolyline
90
8
70
1
43
0.0
10
0.18365035988180622
20
-116.4451961329288
10
0.18365035988180622
20
-119.6019344141788
10
0.65728317238180622
20
-119.6019344141788
10
0.65728317238180622
20
-116.4451961329288
10
1.8413652036318062
20
-116.4451961329288
10
1.8413652036318062
20
-116.0228328516788
10
-0.99554885886819378
20
-116.0228328516788
10
-0.99554885886819378
20
-116.4451961329288
0
LWPOLYLINE
5
133
100
AcDbEntity
8
0
100
AcDbPolyline
90
4
70
1
43
0.0
10
2.4077714536318062
20
-116.0228328516788
10
2.4077714536318062
20
-119.6019344141788
10
2.8814042661318062
20
-119.6019344141788
10
2.8814042661318062
20
-116.0228328516788
0
LWPOLYLINE
5
134
100
AcDbEntity
8
0
100
AcDbPolyline
90
10
70
1
43
0.0
10
3.7114823911318062
20
-116.0228328516788
10
3.7114823911318062
20
-119.6019344141788
10
4.1655839536318062
20
-119.6019344141788
10
4.1655839536318062
20
-116.7894344141788
10
6.0454667661318062
20
-119.6019344141788
10
6.5313066098818062
20
-119.6019344141788
10
6.5313066098818062
20
-116.0228328516788
10
6.0772050473818062
20
-116.0228328516788
10
6.0772050473818062
20
-118.8328914454288
10
4.1973222348818062
20
-116.0228328516788
0
LWPOLYLINE
5
135
100
AcDbEntity
8
0
100
AcDbPolyline
90
12
70
1
43
0.0
10
7.3369706723818062
20
-116.0228328516788
10
7.3369706723818062
20
-119.6019344141788
10
10.007869109881806
20
-119.6019344141788
10
10.007869109881806
20
-119.1795711329288
10
7.8106034848818062
20
-119.1795711329288
10
7.8106034848818062
20
-117.9613094141788
10
9.7905839536318062
20
-117.9613094141788
10
9.7905839536318062
20
-117.5413875391788
10
7.8106034848818062
20
-117.5413875391788
10
7.8106034848818062
20
-116.4451961329288
10
9.9248612973818062
20
-116.4451961329288
10
9.9248612973818062
20
-116.0228328516788
0
LWPOLYLINE
5
136
100
AcDbEntity
8
0
100
AcDbPolyline
90
4
70
1
43
0.0
10
10.435115203631806
20
-118.0858211329288
10
10.435115203631806
20
-118.5277156641788
10
11.785212859881806
20
-118.5277156641788
10
11.785212859881806
20
-118.0858211329288
0
LWPOLYLINE
5
137
100
AcDbEntity
8
0
100
AcDbPolyline
90
7
70
1
43
0.0
10
12.214900359881806
20
-119.0501766016788
10
14.585505828631806
20
-118.0369930079288
10
14.585505828631806
20
-117.6268367579288
10
12.214900359881806
20
-116.6258601954288
10
12.214900359881806
20
-117.0628719141788
10
14.092341766131806
20
-117.8343562891788
10
12.214900359881806
20
-118.6131648829288
0
LINE
5
138
100
AcDbEntity
8
0
100
AcDbLine
10
-12.720933483289969
20
-122.22232061713302
30
0
11
-13.431871013092291
21
-122.22232061713302
31
0
0
LINE
5
139
100
AcDbEntity
8
0
100
AcDbLine
10
-13.431871013092291
20
-122.22232061713302
30
0
11
-12.125230358289969
21
-121.42349261134231
31
0
0
LINE
5
140
100
AcDbEntity
8
0
100
AcDbLine
10
-12.125230358289969
20
-121.42349261134231
30
0
11
-12.125230358289969
21
-121.87857064693534
31
0
0
LINE
5
141
100
AcDbEntity
8
0
100
AcDbLine
10
-12.125230358289969
20
-121.87857064693534
30
0
11
-12.720933483289969
21
-122.22232061713302
31
0
0
LINE
5
142
100
AcDbEntity
8
0
100
AcDbLine
10
-12.125230358289969
20
-123.02310186713302
30
0
11
-13.431871013092291
21
-122.22232061713302
31
0
0
LINE
5
143
100
AcDbEntity
8
0
100
AcDbLine
10
-13.431871013092291
20
-122.22232061713302
30
0
11
-12.720933483289969
21
-122.22232061713302
31
0
0
LINE
5
144
100
AcDbEntity
8
0
100
AcDbLine
10
-12.720933483289969
20
-122.22232061713302
30
0
11
-12.125230358289969
21
-122.56411749213302
31
0
0
LINE
5
145
100
AcDbEntity
8
0
100
AcDbLine
10
-12.125230358289969
20
-122.56411749213302
30
0
11
-12.125230358289969
21
-123.02310186713302
31
0
0
LWPOLYLINE
5
146
100
AcDbEntity
8
0
100
AcDbPolyline
90
4
70
1
43
0.0
10
-10.246324018883001
20
-122.6949771055516
10
-10.246324018883001
20
-122.31607067673767
10
-11.558824108289969
20
-122.31607067673767
10
-11.558824108289969
20
-122.6949771055516
0
SPLINE
5
147
100
AcDbEntity
8
0
100
AcDbSpline
70
0
71
3
72
9
73
5
74
3
42
0.000000001
43
0.0000000001
44
0.0000000001
40
0
40
0
40
0
40
0
40
0.019994547842239679
40
0.039116797078298668
40
0.039116797078298668
40
0.039116797078298668
40
0.039116797078298668
10
-8.7482772034876461
20
-123.55239886134231
30
0
10
-8.8150269265027212
20
-123.55092140551947
30
0
10
-8.9456142941598866
20
-123.54803095057795
30
0
10
-9.0741260013929477
20
-123.52472800705927
30
0
10
-9.1369489592783566
20
-123.51333636134231
30
0
11
-8.7482772034876461
21
-123.55239886134231
31
0
11
-8.9479840559237118
21
-123.54263323634231
31
0
11
-9.1369489592783566
21
-123.51333636134231
31
0
0
SPLINE
5
148
100
AcDbEntity
8
0
100
AcDbSpline
70
0
71
3
72
9
73
5
74
3
42
0.000000001
43
0.0000000001
44
0.0000000001
40
0
40
0
40
0
40
0
40
0.018408430830734665
40
0.036294599223959195
40
0.036294599223959195
40
0.036294599223959195
40
0.036294599223959195
10
-9.1369489592783566
20
-123.51333636134231
30
0
10
-9.1967363804685469
20
-123.49888007460905
30
0
10
-9.3146150041646507
20
-123.47037763797687
30
0
10
-9.425217143460543
20
-123.42065328342599
30
0
10
-9.4797224563830014
20
-123.39614886134231
30
0
11
-9.1369489592783566
21
-123.51333636134231
31
0
11
-9.3144393724672909
21
-123.46450823634231
31
0
11
-9.4797224563830014
21
-123.39614886134231
31
0
0
SPLINE
5
149
100
AcDbEntity
8
0
100
AcDbSpline
70
0
71
3
72
9
73
5
74
3
42
0.000000001
43
0.0000000001
44
0.0000000001
40
0
40
0
40
0
40
0
40
0.017736143997337708
40
0.035685376189849793
40
0.035685376189849793
40
0.035685376189849793
40
0.035685376189849793
10
-9.4797224563830014
20
-123.39614886134231
30
0
10
-9.532064288423781
20
-123.36836423267914
30
0
10
-9.6373768054580111
20
-123.31246116117222
30
0
10
-9.7306559483982014
20
-123.23819245493596
30
0
10
-9.7775740188830014
20
-123.20083636134231
30
0
11
-9.4797224563830014
21
-123.39614886134231
31
0
11
-9.6337754291765805
21
-123.30825823634231
31
0
11
-9.7775740188830014
21
-123.20083636134231
31
0
0
LINE
5
150
100
AcDbEntity
8
0
100
AcDbLine
10
-9.7775740188830014
20
-123.20083636134231
30
0
11
-9.5295272034876461
21
-122.89614874213302
31
0
0
SPLINE
5
151
100
AcDbEntity
8
0
100
AcDbSpline
70
0
71
3
72
9
73
5
74
3
42
0.000000001
43
0.0000000001
44
0.0000000001
40
0
40
0
40
0
40
0
40
0.021019064804448397
40
0.041682615827182384
40
0.041682615827182384
40
0.041682615827182384
40
0.041682615827182384
10
-9.5295272034876461
20
-122.89614874213302
30
0
10
-9.4743895892254422
20
-122.93999197998468
30
0
10
-9.3650469512774173
20
-123.02693689675392
30
0
10
-9.2360524287487635
20
-123.08052217754202
30
0
10
-9.1721052688830014
20
-123.10708630173767
30
0
11
-9.5295272034876461
21
-122.89614874213302
31
0
11
-9.3591172260515805
21
-123.01919567673767
31
0
11
-9.1721052688830014
21
-123.10708630173767
31
0
0
SPLINE
5
152
100
AcDbEntity
8
0
100
AcDbSpline
70
0
71
3
72
9
73
5
74
3
42
0.000000001
43
0.0000000001
44
0.0000000001
40
0
40
0
40
0
40
0
40
0.021033148130129437
40
0.043124664871204331
40
0.043124664871204331
40
0.043124664871204331
40
0.043124664871204331
10
-9.1721052688830014
20
-123.10708630173767
30
0
10
-9.1047260506256009
20
-123.12759077767646
30
0
10
-8.9665771540050407
20
-123.16963149586803
30
0
10
-8.822224755954025
20
-123.17476776105805
30
0
10
-8.7482772034876461
20
-123.17739892094696
30
0
11
-9.1721052688830014
21
-123.10708630173767
31
0
11
-8.9684919280283566
21
-123.15982091515625
31
0
11
-8.7482772034876461
21
-123.17739892094696
31
0
0
SPLINE
5
153
100
AcDbEntity
8
0
100
AcDbSpline
70
0
71
3
72
9
73
5
74
3
42
0.000000001
43
0.0000000001
44
0.0000000001
40
0
40
0
40
0
40
0
40
0.027541127390641604
40
0.049722289346052204
40
0.049722289346052204
40
0.049722289346052204
40
0.049722289346052204
10
-8.7482772034876461
20
-123.17739892094696
30
0
10
-8.6551316484547858
20
-123.17506292614962
30
0
10
-8.4869682260592221
20
-123.17084556033238
30
0
10
-8.3367664429548665
20
-123.09636627246886
30
0
10
-8.2697612804644223
20
-123.06314098923767
30
0
11
-8.7482772034876461
21
-123.17739892094696
31
0
11
-8.4743512434237118
21
-123.14883428900802
31
0
11
-8.2697612804644223
21
-123.06314098923767
31
0
0
SPLINE
5
154
100
AcDbEntity
8
0
100
AcDbSpline
70
0
71
3
72
9
73
5
74
3
42
0.000000001
43
0.0000000001
44
0.0000000001
40
0
40
0
40
0
40
0
40
0.018779929278625311
40
0.037790898592595934
40
0.037790898592595934
40
0.037790898592595934
40
0.037790898592595934
10
-8.2697612804644223
20
-123.06314098923767
30
0
10
-8.220201289735229
20
-123.02089746852664
30
0
10
-8.1204715966086098
20
-122.93589072629135
30
0
10
-8.1067450140695101
20
-122.80549513418737
30
0
10
-8.0998397630922909
20
-122.73989874213302
30
0
11
-8.2697612804644223
21
-123.06314098923767
31
0
11
-8.1423199934237118
21
-122.92520153611267
31
0
11
-8.0998397630922909
21
-122.73989874213302
31
0
0
LINE
5
155
100
AcDbEntity
8
0
100
AcDbLine
10
-8.0998397630922909
20
-122.73989874213305
30
0
11
-8.0998397630922909
21
-122.73794549792373
31
0
0
SPLINE
5
156
100
AcDbEntity
8
0
100
AcDbSpline
70
0
71
3
72
9
73
5
74
3
42
0.000000001
43
0.0000000001
44
0.0000000001
40
0
40
0
40
0
40
0
40
0.013444721271078859
40
0.025197219627018687
40
0.025197219627018687
40
0.025197219627018687
40
0.025197219627018687
10
-8.0998397630922909
20
-122.73794549792373
30
0
10
-8.1020974015746887
20
-122.69216749632137
30
0
10
-8.1063285203559854
20
-122.60637335174945
30
0
10
-8.1545134204757179
20
-122.53560294046665
30
0
10
-8.1769878429644223
20
-122.50259417384231
30
0
11
-8.0998397630922909
21
-122.73794549792373
31
0
11
-8.1191266340487118
21
-122.60488885729873
31
0
11
-8.1769878429644223
21
-122.50259417384231
31
0
0
SPLINE
5
157
100
AcDbEntity
8
0
100
AcDbSpline
70
0
71
3
72
9
73
5
74
3
42
0.000000001
43
0.0000000001
44
0.0000000001
40
0
40
0
40
0
40
0
40
0.011635687224131502
40
0.023931248186371129
40
0.023931248186371129
40
0.023931248186371129
40
0.023931248186371129
10
-8.1769878429644223
20
-122.50259417384231
30
0
10
-8.2051096012872762
20
-122.47531472004474
30
0
10
-8.2629479364795113
20
-122.419208762
30
0
10
-8.33776619364731
20
-122.38913784617738
30
0
10
-8.3762068313830014
20
-122.37368780463302
30
0
11
-8.1769878429644223
21
-122.50259417384231
31
0
11
-8.2653672260515805
21
-122.42691058009231
31
0
11
-8.3762068313830014
21
-122.37368780463302
31
0
0
SPLINE
5
158
100
AcDbEntity
8
0
100
AcDbSpline
70
0
71
3
72
9
73
5
74
3
42
0.000000001
43
0.0000000001
44
0.0000000001
40
0
40
0
40
0
40
0
40
0.014557713838880455
40
0.032494333970895295
40
0.032494333970895295
40
0.032494333970895295
40
0.032494333970895295
10
-8.3762068313830014
20
-122.37368780463302
30
0
10
-8.4226453498997937
20
-122.3594863084449
30
0
10
-8.5263009613851697
20
-122.3277870893827
30
0
10
-8.6328320600831869
20
-122.30765318543702
30
0
10
-8.6916363996737118
20
-122.29653942673767
30
0
11
-8.3762068313830014
21
-122.37368780463302
31
0
11
-8.5160995287172909
21
-122.33340460150802
31
0
11
-8.6916363996737118
21
-122.29653942673767
31
0
0
SPLINE
5
159
100
AcDbEntity
8
0
100
AcDbSpline
70
0
71
3
72
9
73
5
74
3
42
0.000000001
43
0.0000000001
44
0.0000000001
40
0
40
0
40
0
40
0
40
0.00062771118872239414
40
0.0012886862841888171
40
0.0012886862841888171
40
0.0012886862841888171
40
0.0012886862841888171
10
-8.6916363996737118
20
-122.29653942673767
30
0
10
-8.6936583288636982
20
-122.2959699094865
30
0
10
-8.6978093340736535
20
-122.29480069491237
30
0
10
-8.7021206107500131
20
-122.29465890661523
30
0
10
-8.7043318909876461
20
-122.29458618252838
30
0
11
-8.6916363996737118
21
-122.29653942673767
31
0
11
-8.6977402133219357
21
-122.29507464259231
31
0
11
-8.7043318909876461
21
-122.29458618252838
31
0
0
SPLINE
5
160
100
AcDbEntity
8
0
100
AcDbSpline
70
0
71
3
72
9
73
5
74
3
42
0.000000001
43
0.0000000001
44
0.0000000001
40
0
40
0
40
0
40
0
40
0.00066097509546642291
40
0.0012886503505668168
40
0.0012886503505668168
40
0.0012886503505668168
40
0.0012886503505668168
10
-8.7043318909876461
20
-122.29458618252838
30
0
10
-8.7065431669907287
20
-122.29451344167373
30
0
10
-8.710854315196034
20
-122.29437162463935
30
0
10
-8.7150052491596455
20
-122.29320262982878
30
0
10
-8.7170270842783566
20
-122.29263323634231
30
0
11
-8.7043318909876461
21
-122.29458618252838
31
0
11
-8.7109235686533566
21
-122.29409772246444
31
0
11
-8.7170270842783566
21
-122.29263323634231
31
0
0
LINE
5
161
100
AcDbEntity
8
0
100
AcDbLine
10
-8.7170270842783566
20
-122.29263323634234
30
0
11
-8.7463239592783566
21
-122.28677380173767
31
0
0
SPLINE
5
162
100
AcDbEntity
8
0
100
AcDbSpline
70
0
71
3
72
9
73
5
74
3
42
0.000000001
43
0.0000000001
44
0.0000000001
40
0
40
0
40
0
40
0
40
0.026372275590060269
40
0.047717515559266767
40
0.047717515559266767
40
0.047717515559266767
40
0.047717515559266767
10
-8.7463239592783566
20
-122.28677380173767
30
0
10
-8.8329539467516618
20
-122.27129043931751
30
0
10
-8.9897006696895367
20
-122.24327512510348
30
0
10
-9.1420441099511738
20
-122.19708435079062
30
0
10
-9.2101911467783566
20
-122.17642206042373
30
0
11
-8.7463239592783566
21
-122.28677380173767
31
0
11
-9.0048689407580014
21
-122.2347720274266
31
0
11
-9.2101911467783566
21
-122.17642206042373
31
0
0
SPLINE
5
163
100
AcDbEntity
8
0
100
AcDbSpline
70
0
71
3
72
9
73
5
74
3
42
0.000000001
43
0.0000000001
44
0.0000000001
40
0
40
0
40
0
40
0
40
0.018717438043890814
40
0.038346483163331349
40
0.038346483163331349
40
0.038346483163331349
40
0.038346483163331349
10
-9.2101911467783566
20
-122.17642206042373
30
0
10
-9.2680821650186846
20
-122.15106166114573
30
0
10
-9.3866837039181465
20
-122.09910571922413
30
0
10
-9.4721211282776743
20
-122.00168247369399
30
0
10
-9.5158553880922909
20
-121.95181283443534
30
0
11
-9.2101911467783566
21
-122.17642206042373
31
0
11
-9.3759626907580014
21
-122.08950805752838
31
0
11
-9.5158553880922909
21
-121.95181283443534
31
0
0
SPLINE
5
164
100
AcDbEntity
8
0
100
AcDbSpline
70
0
71
3
72
9
73
5
74
3
42
0.000000001
43
0.0000000001
44
0.0000000001
40
0
40
0
40
0
40
0
40
0.021926239425077373
40
0.048750415519233065
40
0.048750415519233065
40
0.048750415519233065
40
0.048750415519233065
10
-9.5158553880922909
20
-121.95181283443534
30
0
10
-9.5527863422172921
20
-121.88749136290097
30
0
10
-9.6348979767849734
20
-121.74448013314475
30
0
10
-9.6400007755395389
20
-121.57899898670236
30
0
10
-9.6428085130922909
20
-121.48794549792373
30
0
11
-9.5158553880922909
21
-121.95181283443534
31
0
11
-9.6110702318422909
21
-121.7543030092057
31
0
11
-9.6428085130922909
21
-121.48794549792373
31
0
0
LINE
5
165
100
AcDbEntity
8
0
100
AcDbLine
10
-9.6428085130922909
20
-121.48794549792372
30
0
11
-9.6428085130922909
21
-121.48599240272605
31
0
0
SPLINE
5
166
100
AcDbEntity
8
0
100
AcDbSpline
70
0
71
3
72
9
73
5
74
3
42
0.000000001
43
0.0000000001
44
0.0000000001
40
0
40
0
40
0
40
0
40
0.024616367038873141
40
0.047024409011461127
40
0.047024409011461127
40
0.047024409011461127
40
0.047024409011461127
10
-9.6428085130922909
20
-121.48599240272605
30
0
10
-9.6388782611049777
20
-121.40293496433119
30
0
10
-9.6313703385639453
20
-121.24427113922833
30
0
10
-9.5590882206229182
20
-121.10307830208507
30
0
10
-9.5246443909876461
20
-121.03579717963302
30
0
11
-9.6428085130922909
21
-121.48599240272605
31
0
11
-9.6132675570719357
21
-121.2416076967057
31
0
11
-9.5246443909876461
21
-121.03579717963302
31
0
0
SPLINE
5
167
100
AcDbEntity
8
0
100
AcDbSpline
70
0
71
3
72
9
73
5
74
3
42
0.000000001
43
0.0000000001
44
0.0000000001
40
0
40
0
40
0
40
0
40
0.021931312248438434
40
0.045202549677316142
40
0.045202549677316142
40
0.045202549677316142
40
0.045202549677316142
10
-9.5246443909876461
20
-121.03579717963302
30
0
10
-9.479677201910258
20
-120.9768770799411
30
0
10
-9.386995488427079
20
-120.85543707201333
30
0
10
-9.250294325998258
20
-120.78690117514492
30
0
10
-9.1799176496737118
20
-120.75161743252838
30
0
11
-9.5246443909876461
21
-121.03579717963302
31
0
11
-9.3793807191126461
21
-120.87149041979873
31
0
11
-9.1799176496737118
21
-120.75161743252838
31
0
0
SPLINE
5
168
100
AcDbEntity
8
0
100
AcDbSpline
70
0
71
3
72
9
73
5
74
3
42
0.000000001
43
0.0000000001
44
0.0000000001
40
0
40
0
40
0
40
0
40
0.026003933613041895
40
0.055645662115847414
40
0.055645662115847414
40
0.055645662115847414
40
0.055645662115847414
10
-9.1799176496737118
20
-120.75161743252838
30
0
10
-9.0974982602459455
20
-120.72316700564201
30
0
10
-8.9211295014212517
20
-120.66228610719298
30
0
10
-8.7344419508986331
20
-120.65685451945572
30
0
10
-8.6349958938830014
20
-120.65396118252838
30
0
11
-9.1799176496737118
21
-120.75161743252838
31
0
11
-8.9304060501330014
21
-120.67837524502838
31
0
11
-8.6349958938830014
21
-120.65396118252838
31
0
0
SPLINE
5
169
100
AcDbEntity
8
0
100
AcDbSpline
70
0
71
3
72
9
73
5
74
3
42
0.000000001
43
0.0000000001
44
0.0000000001
40
0
40
0
40
0
40
0
40
0.015135120121926908
40
0.030210359377033154
40
0.030210359377033154
40
0.030210359377033154
40
0.030210359377033154
10
-8.6349958938830014
20
-120.65396118252838
30
0
10
-8.5844668349125257
20
-120.65533364210938
30
0
10
-8.4836086310671615
20
-120.65807313124714
30
0
10
-8.3845981846049273
20
-120.67748003136606
30
0
10
-8.3351910871737118
20
-120.68716424792373
30
0
11
-8.6349958938830014
21
-120.65396118252838
31
0
11
-8.4838724893801327
21
-120.66226194887722
31
0
11
-8.3351910871737118
21
-120.68716424792373
31
0
0
SPLINE
5
170
100
AcDbEntity
8
0
100
AcDbSpline
70
0
71
3
72
9
73
5
74
3
42
0.000000001
43
0.0000000001
44
0.0000000001
40
0
40
0
40
0
40
0
40
0.015218422766152194
40
0.030768639106968212
40
0.030768639106968212
40
0.030768639106968212
40
0.030768639106968212
10
-8.3351910871737118
20
-120.68716424792373
30
0
10
-8.2859477309620218
20
-120.69969011085051
30
0
10
-8.1863874099632348
20
-120.72501492681992
30
0
10
-8.0919190905709311
20
-120.76539125626246
30
0
10
-8.0441755813830014
20
-120.78579712002838
30
0
11
-8.3351910871737118
21
-120.68716424792373
31
0
11
-8.1887067121737118
21
-120.72842399864757
31
0
11
-8.0441755813830014
21
-120.78579712002838
31
0
0
SPLINE
5
171
100
AcDbEntity
8
0
100
AcDbSpline
70
0
71
3
72
9
73
5
74
3
42
0.000000001
43
0.0000000001
44
0.0000000001
40
0
40
0
40
0
40
0
40
0.016040951785968684
40
0.032733082597189336
40
0.032733082597189336
40
0.032733082597189336
40
0.032733082597189336
10
-8.0441755813830014
20
-120.78579712002838
30
0
10
-7.9960857431530288
20
-120.80934957210826
30
0
10
-7.8979538699406104
20
-120.8574105830497
30
0
10
-7.8078811009942122
20
-120.91928398131132
30
0
10
-7.7619487804644223
20
-120.95083612292373
30
0
11
-8.0441755813830014
21
-120.78579712002838
31
0
11
-7.9018414777987118
21
-120.85977155058944
31
0
11
-7.7619487804644223
21
-120.95083612292373
31
0
0
LINE
5
172
100
AcDbEntity
8
0
100
AcDbLine
10
-7.7619487804644223
20
-120.95083612292372
30
0
11
-7.9885113996737118
21
-121.2672424623307
31
0
0
SPLINE
5
173
100
AcDbEntity
8
0
100
AcDbSpline
70
0
71
3
72
9
73
5
74
3
42
0.000000001
43
0.0000000001
44
0.0000000001
40
0
40
0
40
0
40
0
40
0.019253015666047021
40
0.037025837622822411
40
0.037025837622822411
40
0.037025837622822411
40
0.037025837622822411
10
-7.9885113996737118
20
-121.2672424623307
30
0
10
-8.0413437855144281
20
-121.23044923512408
30
0
10
-8.142946743372832
20
-121.15969148580305
30
0
10
-8.2570043865432119
20
-121.11161077937925
30
0
10
-8.3117533487551327
20
-121.08853149502838
30
0
11
-7.9885113996737118
21
-121.2672424623307
31
0
11
-8.1503761572115536
21
-121.16299438565338
31
0
11
-8.3117533487551327
21
-121.08853149502838
31
0
0
SPLINE
5
174
100
AcDbEntity
8
0
100
AcDbSpline
70
0
71
3
72
9
73
5
74
3
42
0.000000001
43
0.0000000001
44
0.0000000001
40
0
40
0
40
0
40
0
40
0.016744762927970117
40
0.032999663665546519
40
0.032999663665546519
40
0.032999663665546519
40
0.032999663665546519
10
-8.3117533487551327
20
-121.08853149502838
30
0
10
-8.3650919260007583
20
-121.0711578759211
30
0
10
-8.4702086790462321
20
-121.03691889686479
30
0
10
-8.5806131203785938
20
-121.03158733284096
30
0
10
-8.6349958938830014
20
-121.02896112292373
30
0
11
-8.3117533487551327
21
-121.08853149502838
31
0
11
-8.4731305402987118
21
-121.04385364144409
31
0
11
-8.6349958938830014
21
-121.02896112292373
31
0
0
SPLINE
5
175
100
AcDbEntity
8
0
100
AcDbSpline
70
0
71
3
72
9
73
5
74
3
42
0.000000001
43
0.0000000001
44
0.0000000001
40
0
40
0
40
0
40
0
40
0.026017219737384228
40
0.047248990645952435
40
0.047248990645952435
40
0.047248990645952435
40
0.047248990645952435
10
-8.6349958938830014
20
-121.02896112292373
30
0
10
-8.7231328068514014
20
-121.03150999060983
30
0
10
-8.8831952661934057
20
-121.03613890279468
30
0
10
-9.0239118940773331
20
-121.11136748893125
30
0
10
-9.0871442121737118
20
-121.1451721498307
30
0
11
-8.6349958938830014
21
-121.02896112292373
31
0
11
-8.8935408753626461
21
-121.05801391690338
31
0
11
-9.0871442121737118
21
-121.1451721498307
31
0
0
SPLINE
5
176
100
AcDbEntity
8
0
100
AcDbSpline
70
0
71
3
72
9
73
5
74
3
42
0.000000001
43
0.0000000001
44
0.0000000001
40
0
40
0
40
0
40
0
40
0.018523329055064465
40
0.037820553009960282
40
0.037820553009960282
40
0.037820553009960282
40
0.037820553009960282
10
-9.0871442121737118
20
-121.1451721498307
30
0
10
-9.1341357729631785
20
-121.18863760492908
30
0
10
-9.2300821771206341
20
-121.27738447887189
30
0
10
-9.2421299008409168
20
-121.40775472364807
30
0
10
-9.2482770246737118
20
-121.47427368252838
30
0
11
-9.0871442121737118
21
-121.1451721498307
31
0
11
-9.2079938215487118
21
-121.28555286019409
31
0
11
-9.2482770246737118
21
-121.47427368252838
31
0
0
LINE
5
177
100
AcDbEntity
8
0
100
AcDbLine
10
-9.2482770246737118
20
-121.47427368252838
30
0
11
-9.2482770246737118
21
-121.47622677772605
31
0
0
SPLINE
5
178
100
AcDbEntity
8
0
100
AcDbSpline
70
0
71
3
72
9
73
5
74
3
42
0.000000001
43
0.0000000001
44
0.0000000001
40
0
40
0
40
0
40
0
40
0.013249469039693818
40
0.024995878566536425
40
0.024995878566536425
40
0.024995878566536425
40
0.024995878566536425
10
-9.2482770246737118
20
-121.47622677772605
30
0
10
-9.2457301118389914
20
-121.52148134095837
30
0
10
-9.2409252156016013
20
-121.60685665401793
30
0
10
-9.1894562306078829
20
-121.67477735201464
30
0
10
-9.1652692121737118
20
-121.7066955873307
30
0
11
-9.2482770246737118
21
-121.47622677772605
31
0
11
-9.2275250715487118
21
-121.60708624213302
31
0
11
-9.1652692121737118
21
-121.7066955873307
31
0
0
SPLINE
5
179
100
AcDbEntity
8
0
100
AcDbSpline
70
0
71
3
72
9
73
5
74
3
42
0.000000001
43
0.0000000001
44
0.0000000001
40
0
40
0
40
0
40
0
40
0.011843322060721213
40
0.024312118814859618
40
0.024312118814859618
40
0.024312118814859618
40
0.024312118814859618
10
-9.1652692121737118
20
-121.7066955873307
30
0
10
-9.135383683390021
20
-121.73301998753614
30
0
10
-9.074034298233661
20
-121.78705904365934
30
0
10
-8.9974932472642237
20
-121.81591819272386
30
0
10
-8.9582381409876461
20
-121.83071899502838
30
0
11
-9.1652692121737118
21
-121.7066955873307
31
0
11
-9.0720076126330014
21
-121.77969354479873
31
0
11
-8.9582381409876461
21
-121.83071899502838
31
0
0
SPLINE
5
180
100
AcDbEntity
8
0
100
AcDbSpline
70
0
71
3
72
9
73
5
74
3
42
0.000000001
43
0.0000000001
44
0.0000000001
40
0
40
0
40
0
40
0
40
0.015369988054695111
40
0.035472025821846762
40
0.035472025821846762
40
0.035472025821846762
40
0.035472025821846762
10
-8.9582381409876461
20
-121.83071899502838
30
0
10
-8.9089901769983424
20
-121.84492179828318
30
0
10
-8.7953319851971905
20
-121.87770010637321
30
0
10
-8.6792788465904813
20
-121.90069536695202
30
0
10
-8.6135113996737118
20
-121.91372680752838
30
0
11
-8.9582381409876461
21
-121.83071899502838
31
0
11
-8.8100446027987118
21
-121.87149065821731
31
0
11
-8.6135113996737118
21
-121.91372680752838
31
0
0
SPLINE
5
181
100
AcDbEntity
8
0
100
AcDbSpline
70
0
71
3
72
9
73
5
74
3
42
0.000000001
43
0.0000000001
44
0.0000000001
40
0
40
0
40
0
40
0
40
0.0007758858864050039
40
0.0014943458114538839
40
0.0014943458114538839
40
0.0014943458114538839
40
0.0014943458114538839
10
-8.6135113996737118
20
-121.91372680752838
30
0
10
-8.6109953610676264
20
-121.91433029199547
30
0
10
-8.6061495044560505
20
-121.91549259498549
30
0
10
-8.6012287770013209
20
-121.9162786168492
30
0
10
-8.5988629621737118
20
-121.9166565248307
30
0
11
-8.6135113996737118
21
-121.91372680752838
31
0
11
-8.6059430999033566
21
-121.9154358217057
31
0
11
-8.5988629621737118
21
-121.9166565248307
31
0
0
SPLINE
5
182
100
AcDbEntity
8
0
100
AcDbSpline
70
0
71
3
72
9
73
5
74
3
42
0.000000001
43
0.0000000001
44
0.0000000001
40
0
40
0
40
0
40
0
40
0.00071845992504888012
40
0.0014943458114538839
40
0.0014943458114538839
40
0.0014943458114538839
40
0.0014943458114538839
10
-8.5988629621737118
20
-121.9166565248307
30
0
10
-8.5964971473461045
20
-121.91703443281222
30
0
10
-8.5915764198913749
20
-121.91782045467592
30
0
10
-8.586730563279799
20
-121.91898275766593
30
0
10
-8.5842145246737118
20
-121.91958624213302
30
0
11
-8.5988629621737118
21
-121.9166565248307
31
0
11
-8.591782824444067
21
-121.9178772279557
31
0
11
-8.5842145246737118
21
-121.91958624213302
31
0
0
SPLINE
5
183
100
AcDbEntity
8
0
100
AcDbSpline
70
0
71
3
72
9
73
5
74
3
42
0.000000001
43
0.0000000001
44
0.0000000001
40
0
40
0
40
0
40
0
40
0.0010438166104127903
40
0.0021837410917361915
40
0.0021837410917361915
40
0.0021837410917361915
40
0.0021837410917361915
10
-8.5842145246737118
20
-121.91958624213302
30
0
10
-8.5807989896925978
20
-121.92025046459371
30
0
10
-8.573653439397539
20
-121.92164006681594
30
0
10
-8.566476454702558
20
-121.92285712281459
30
0
10
-8.5627300304644223
20
-121.92349243252838
30
0
11
-8.5842145246737118
21
-121.91958624213302
31
0
11
-8.5739607376330014
21
-121.92153948634231
31
0
11
-8.5627300304644223
21
-121.92349243252838
31
0
0
SPLINE
5
184
100
AcDbEntity
8
0
100
AcDbSpline
70
0
71
3
72
9
73
5
74
3
42
0.000000001
43
0.0000000001
44
0.0000000001
40
0
40
0
40
0
40
0
40
0.001139868311107075
40
0.0021836849215198656
40
0.0021836849215198656
40
0.0021836849215198656
40
0.0021836849215198656
10
-8.5627300304644223
20
-121.92349243252838
30
0
10
-8.5589838088267918
20
-121.92412781439003
30
0
10
-8.5518070432100473
20
-121.92534503727197
30
0
10
-8.5446616703325553
20
-121.92673456702832
30
0
10
-8.5412461323015805
20
-121.92739877193534
30
0
11
-8.5627300304644223
21
-121.92349243252838
31
0
11
-8.5514999193422909
21
-121.92544552772605
31
0
11
-8.5412461323015805
21
-121.92739877193534
31
0
0
SPLINE
5
185
100
AcDbEntity
8
0
100
AcDbSpline
70
0
71
3
72
9
73
5
74
3
42
0.000000001
43
0.0000000001
44
0.0000000001
40
0
40
0
40
0
40
0
40
0.024348789840753456
40
0.044894363817141354
40
0.044894363817141354
40
0.044894363817141354
40
0.044894363817141354
10
-8.5412461323015805
20
-121.92739877193534
30
0
10
-8.4617963133723855
20
-121.9445943032929
30
0
10
-8.3153065247816063
20
-121.97629946999088
30
0
10
-8.1748572742243457
20
-122.02850659611103
30
0
10
-8.1105817121737118
20
-122.05239880173767
30
0
11
-8.5412461323015805
21
-121.92739877193534
31
0
11
-8.3046735090487118
21
-121.98501604884231
31
0
11
-8.1105817121737118
21
-122.05239880173767
31
0
0
SPLINE
5
186
100
AcDbEntity
8
0
100
AcDbSpline
70
0
71
3
72
9
73
5
74
3
42
0.000000001
43
0.0000000001
44
0.0000000001
40
0
40
0
40
0
40
0
40
0.018468857012445966
40
0.037519903145678282
40
0.037519903145678282
40
0.037519903145678282
40
0.037519903145678282
10
-8.1105817121737118
20
-122.05239880173767
30
0
10
-8.0550342979574996
20
-122.08059582112598
30
0
10
-7.9421884623987165
20
-122.13787870743201
30
0
10
-7.8621564018911227
20
-122.2359835973301
30
0
10
-7.8215194505922909
20
-122.28579717963302
30
0
11
-8.1105817121737118
21
-122.05239880173767
31
0
11
-7.9518903059237118
21
-122.14688110440338
31
0
11
-7.8215194505922909
21
-122.28579717963302
31
0
0
SPLINE
5
187
100
AcDbEntity
8
0
100
AcDbSpline
70
0
71
3
72
9
73
5
74
3
42
0.000000001
43
0.0000000001
44
0.0000000001
40
0
40
0
40
0
40
0
40
0.020964999760195543
40
0.046109004286104691
40
0.046109004286104691
40
0.046109004286104691
40
0.046109004286104691
10
-7.8215194505922909
20
-122.28579717963302
30
0
10
-7.7876973229282198
20
-122.34802348182177
30
0
10
-7.7133112200297713
20
-122.48487980746675
30
0
10
-7.7081323812989391
20
-122.64105953296104
30
0
10
-7.7053082746737118
20
-122.72622692673767
30
0
11
-7.8215194505922909
21
-122.28579717963302
31
0
11
-7.7343607706301327
21
-122.47647094815338
31
0
11
-7.7053082746737118
21
-122.72622692673767
31
0
0
LINE
5
188
100
AcDbEntity
8
0
100
AcDbLine
10
-7.7053082746737109
20
-122.72622692673767
30
0
11
-7.7053082746737118
21
-122.73013311713302
31
0
0
SPLINE
5
189
100
AcDbEntity
8
0
100
AcDbSpline
70
0
71
3
72
9
73
5
74
3
42
0.000000001
43
0.0000000001
44
0.0000000001
40
0
40
0
40
0
40
0
40
0.024292228747912755
40
0.046625056132701667
40
0.046625056132701667
40
0.046625056132701667
40
0.046625056132701667
10
-7.7053082746737118
20
-122.73013311713302
30
0
10
-7.7095168288919194
20
-122.81217073578013
30
0
10
-7.7175944770442424
20
-122.96962885187594
30
0
10
-7.7924838326761527
20
-123.10812912863342
30
0
10
-7.8283549112551327
20
-123.17446905463302
30
0
11
-7.7053082746737118
21
-122.73013311713302
31
0
11
-7.7360702318422909
21
-122.97109979479873
31
0
11
-7.8283549112551327
21
-123.17446905463302
31
0
0
SPLINE
5
190
100
AcDbEntity
8
0
100
AcDbSpline
70
0
71
3
72
9
73
5
74
3
42
0.000000001
43
0.0000000001
44
0.0000000001
40
0
40
0
40
0
40
0
40
0.02216507424356786
40
0.045921368033191579
40
0.045921368033191579
40
0.045921368033191579
40
0.045921368033191579
10
-7.8283549112551327
20
-123.17446905463302
30
0
10
-7.875237051658357
20
-123.23284292877914
30
0
10
-7.9723669777746631
20
-123.35378130817412
30
0
10
-8.1123720384490774
20
-123.42096394405101
30
0
10
-8.1848002237551327
20
-123.45571923344696
30
0
11
-7.8283549112551327
21
-123.17446905463302
31
0
11
-7.9789901537172909
21
-123.3370669493016
31
0
11
-8.1848002237551327
21
-123.45571923344696
31
0
0
SPLINE
5
191
100
AcDbEntity
8
0
100
AcDbSpline
70
0
71
3
72
9
73
5
74
3
42
0.000000001
43
0.0000000001
44
0.0000000001
40
0
40
0
40
0
40
0
40
0.026758017825255012
40
0.057444213028867479
40
0.057444213028867479
40
0.057444213028867479
40
0.057444213028867479
10
-8.1848002237551327
20
-123.45571923344696
30
0
10
-8.2699436154310249
20
-123.48388230245695
30
0
10
-8.4527297680291493
20
-123.54434288463909
30
0
10
-8.645370312684614
20
-123.54959384456515
30
0
10
-8.7482772034876461
20
-123.55239886134231
30
0
11
-8.1848002237551327
21
-123.45571923344696
31
0
11
-8.4423685831301327
21
-123.52822917788589
31
0
11
-8.7482772034876461
21
-123.55239886134231
31
0
0
LWPOLYLINE
5
192
100
AcDbEntity
8
0
100
AcDbPolyline
90
4
70
1
43
0.0
10
-6.3283551496737118
20
-120.91567981331909
10
-6.7267925304644223
20
-120.91567981331909
10
-6.7267925304644223
20
-123.52310198634231
10
-6.3283551496737118
20
-123.52310198634231
0
LWPOLYLINE
5
193
100
AcDbEntity
8
0
100
AcDbPolyline
90
4
70
1
43
0.0
10
-5.5256206554644223
20
-120.68325805752838
10
-7.5295270246737118
20
-120.68325805752838
10
-7.5295270246737118
20
-121.0621643373307
10
-5.5256206554644223
20
-121.0621643373307
0
LWPOLYLINE
5
194
100
AcDbEntity
8
0
100
AcDbPolyline
90
7
70
1
43
0.0
10
-4.0998394054644223
20
-120.68325805752838
10
-4.4396830362551327
20
-120.68325805752838
10
-5.4865581554644223
20
-123.52310198634231
10
-5.0568706554644223
20
-123.52310198634231
10
-4.2697615188830014
20
-121.23208615272605
10
-3.4826517862551332
20
-123.52310198634231
10
-3.0529642862551332
20
-123.52310198634231
0
LWPOLYLINE
5
195
100
AcDbEntity
8
0
100
AcDbPolyline
90
4
70
1
43
0.0
10
-3.5099960130922914
20
-122.52114880173767
10
-5.0041360420458432
20
-122.52114880173767
10
-5.0041360420458432
20
-122.90005493252838
10
-3.5099960130922914
20
-122.90005493252838
0
LINE
5
196
100
AcDbEntity
8
0
100
AcDbLine
10
-2.449448184417975
20
-121.94302383153999
30
0
11
-1.4806986612551332
21
-121.94302383153999
31
0
0
SPLINE
5
197
100
AcDbEntity
8
0
100
AcDbSpline
70
0
71
3
72
9
73
5
74
3
42
0.000000001
43
0.0000000001
44
0.0000000001
40
0
40
0
40
0
40
0
40
0.010780359040143732
40
0.021058091104536596
40
0.021058091104536596
40
0.021058091104536596
40
0.021058091104536596
10
-1.4806986612551332
20
-121.94302383153999
30
0
10
-1.4443643795905081
20
-121.94097067733337
30
0
10
-1.3733898776595077
20
-121.93696009585146
30
0
10
-1.3103127885767996
20
-121.90428423766971
30
0
10
-1.2795270246737123
20
-121.88833627193534
30
0
11
-1.4806986612551332
21
-121.94302383153999
31
0
11
-1.3737655443422914
21
-121.92935186713302
31
0
11
-1.2795270246737123
21
-121.88833627193534
31
0
0
SPLINE
5
198
100
AcDbEntity
8
0
100
AcDbSpline
70
0
71
3
72
9
73
5
74
3
42
0.000000001
43
0.0000000001
44
0.0000000001
40
0
40
0
40
0
40
0
40
0.010219005798203985
40
0.020843890396956222
40
0.020843890396956222
40
0.020843890396956222
40
0.020843890396956222
10
-1.2795270246737123
20
-121.88833627193534
30
0
10
-1.2517504570198956
20
-121.86787930262206
30
0
10
-1.1950940911059527
20
-121.82615285343115
30
0
10
-1.1611083565157165
20
-121.7644930998859
30
0
10
-1.1437845987551332
20
-121.73306289403999
30
0
11
-1.2795270246737123
21
-121.88833627193534
31
0
11
-1.2016464037172914
21
-121.82217422216499
31
0
11
-1.1437845987551332
21
-121.73306289403999
31
0
0
SPLINE
5
199
100
AcDbEntity
8
0
100
AcDbSpline
70
0
71
3
72
9
73
5
74
3
42
0.000000001
43
0.0000000001
44
0.0000000001
40
0
40
0
40
0
40
0
40
0.011395339609380443
40
0.023782340691828035
40
0.023782340691828035
40
0.023782340691828035
40
0.023782340691828035
10
-1.1437845987551332
20
-121.73306289403999
30
0
10
-1.129834334143125
20
-121.69743204564125
30
0
10
-1.1007198051236644
20
-121.62306963040788
30
0
10
-1.0975722156843304
20
-121.54321157512024
30
0
10
-1.0959327978365541
20
-121.50161761134231
30
0
11
-1.1437845987551332
21
-121.73306289403999
31
0
11
-1.107895450042975
21
-121.62490862696731
31
0
11
-1.0959327978365541
21
-121.50161761134231
31
0
0
SPLINE
5
200
100
AcDbEntity
8
0
100
AcDbSpline
70
0
71
3
72
9
73
5
74
3
42
0.000000001
43
0.0000000001
44
0.0000000001
40
0
40
0
40
0
40
0
40
0.012387001082447592
40
0.023782340691828035
40
0.023782340691828035
40
0.023782340691828035
40
0.023782340691828035
10
-1.0959327978365541
20
-121.50161761134231
30
0
10
-1.0975722156843282
20
-121.4600236475644
30
0
10
-1.1007198051236622
20
-121.38016559227677
30
0
10
-1.129834334143125
20
-121.3058031770434
30
0
10
-1.1437845987551332
20
-121.27017232864463
30
0
11
-1.0959327978365541
21
-121.50161761134231
31
0
11
-1.107895450042975
21
-121.37832659571731
31
0
11
-1.1437845987551332
21
-121.27017232864463
31
0
0
SPLINE
5
201
100
AcDbEntity
8
0
100
AcDbSpline
70
0
71
3
72
9
73
5
74
3
42
0.000000001
43
0.0000000001
44
0.0000000001
40
0
40
0
40
0
40
0
40
0.010611608326239648
40
0.020774941945581733
40
0.020774941945581733
40
0.020774941945581733
40
0.020774941945581733
10
-1.1437845987551332
20
-121.27017232864463
30
0
10
-1.1610379978894225
20
-121.23876321617816
30
0
10
-1.194815946939094
20
-121.17727183164976
30
0
10
-1.2510435360405681
20
-121.13538856402309
30
0
10
-1.2785507005922914
20
-121.11489880173767
30
0
11
-1.1437845987551332
21
-121.27017232864463
31
0
11
-1.2014020246737123
21
-121.18106085150802
31
0
11
-1.2785507005922914
21
-121.11489880173767
31
0
0
SPLINE
5
202
100
AcDbEntity
8
0
100
AcDbSpline
70
0
71
3
72
9
73
5
74
3
42
0.000000001
43
0.0000000001
44
0.0000000001
40
0
40
0
40
0
40
0
40
0.010255329112833011
40
0.021156781917382753
40
0.021156781917382753
40
0.021156781917382753
40
0.021156781917382753
10
-1.2785507005922914
20
-121.11489880173767
30
0
10
-1.3092560150122678
20
-121.09895241324337
30
0
10
-1.372601192308931
20
-121.06605495475793
30
0
10
-1.4439399480499393
20
-121.06219850408125
30
0
10
-1.4806986612551332
20
-121.06021139114463
30
0
11
-1.2785507005922914
21
-121.11489880173767
31
0
11
-1.3725448412172914
21
-121.07388320653999
31
0
11
-1.4806986612551332
21
-121.06021139114463
31
0
0
LINE
5
203
100
AcDbEntity
8
0
100
AcDbLine
10
-1.4806986612551334
20
-121.06021139114463
30
0
11
-2.449448184417975
21
-121.06021139114463
31
0
0
LINE
5
204
100
AcDbEntity
8
0
100
AcDbLine
10
-2.449448184417975
20
-121.06021139114463
30
0
11
-2.449448184417975
21
-120.68130511134231
31
0
0
LINE
5
205
100
AcDbEntity
8
0
100
AcDbLine
10
-2.449448184417975
20
-120.68130511134231
30
0
11
-1.4963234228365541
21
-120.68130511134231
31
0
0
SPLINE
5
206
100
AcDbEntity
8
0
100
AcDbSpline
70
0
71
3
72
9
73
5
74
3
42
0.000000001
43
0.0000000001
44
0.0000000001
40
0
40
0
40
0
40
0
40
0.023259048609551258
40
0.044792872951960001
40
0.044792872951960001
40
0.044792872951960001
40
0.044792872951960001
10
-1.4963234228365541
20
-120.68130511134231
30
0
10
-1.418075499766609
20
-120.68484574878147
30
0
10
-1.2673836406254968
20
-120.69166439926212
30
0
10
-1.1298332352518847
20
-120.75325726289476
30
0
10
-1.0637069505922914
20
-120.78286755173767
30
0
11
-1.4963234228365541
21
-120.68130511134231
31
0
11
-1.2651229662172914
21
-120.70669572144115
31
0
11
-1.0637069505922914
21
-120.78286755173767
31
0
0
SPLINE
5
207
100
AcDbEntity
8
0
100
AcDbSpline
70
0
71
3
72
9
73
5
74
3
42
0.000000001
43
0.0000000001
44
0.0000000001
40
0
40
0
40
0
40
0
40
0.020610687171603762
40
0.041245497765071568
40
0.041245497765071568
40
0.041245497765071568
40
0.041245497765071568
10
-1.0637069505922914
20
-120.78286755173767
30
0
10
-1.0050215609005941
20
-120.82027990585607
30
0
10
-0.88758209421915479
20
-120.89514840273482
30
0
10
-0.81230437201411876
20
-121.01232894844942
30
0
10
-0.77464349691797496
20
-121.07095348923767
30
0
11
-1.0637069505922914
21
-120.78286755173767
31
0
11
-0.89817889158655406
21
-120.90567025631034
31
0
11
-0.77464349691797496
21
-121.07095348923767
31
0
0
SPLINE
5
208
100
AcDbEntity
8
0
100
AcDbSpline
70
0
71
3
72
9
73
5
74
3
42
0.000000001
43
0.0000000001
44
0.0000000001
40
0
40
0
40
0
40
0
40
0.021514244867953846
40
0.044630450067403307
40
0.044630450067403307
40
0.044630450067403307
40
0.044630450067403307
10
-0.77464349691797496
20
-121.07095348923767
30
0
10
-0.74474689792142446
20
-121.13689402108815
30
0
10
-0.68272758574522863
20
-121.27368504639408
30
0
10
-0.67572921773721317
20
-121.42384349951014
30
0
10
-0.67210443441797496
20
-121.50161761134231
30
0
11
-0.77464349691797496
21
-121.07095348923767
31
0
11
-0.69773920004297496
21
-121.27188134282196
31
0
11
-0.67210443441797496
21
-121.50161761134231
31
0
0
SPLINE
5
209
100
AcDbEntity
8
0
100
AcDbSpline
70
0
71
3
72
9
73
5
74
3
42
0.000000001
43
0.0000000001
44
0.0000000001
40
0
40
0
40
0
40
0
40
0.023118928003355608
40
0.044659474334365977
40
0.044659474334365977
40
0.044659474334365977
40
0.044659474334365977
10
-0.67210443441797496
20
-121.50161761134231
30
0
10
-0.6757743578521791
20
-121.57941165297584
30
0
10
-0.68286365072056432
20
-121.72968856050349
30
0
10
-0.74543908502598288
20
-121.8663606923498
30
0
10
-0.77562101309229137
20
-121.93228158443534
30
0
11
-0.67210443441797496
21
-121.50161761134231
31
0
11
-0.69798357908655406
21
-121.73135387986267
31
0
11
-0.77562101309229137
21
-121.93228158443534
31
0
0
SPLINE
5
210
100
AcDbEntity
8
0
100
AcDbSpline
70
0
71
3
72
9
73
5
74
3
42
0.000000001
43
0.0000000001
44
0.0000000001
40
0
40
0
40
0
40
0
40
0.020678713404034238
40
0.041308927566343079
40
0.041308927566343079
40
0.041308927566343079
40
0.041308927566343079
10
-0.77562101309229137
20
-121.93228158443534
30
0
10
-0.81354822625011591
20
-121.99089612197767
30
0
10
-0.88931369920377312
20
-122.10798772426267
30
0
10
-1.0069236593659925
20
-122.18293682166554
30
0
10
-1.0656595987551332
20
-122.22036737292373
30
0
11
-0.77562101309229137
21
-121.93228158443534
31
0
11
-0.89988835279871227
21
-122.09756481736267
31
0
11
-1.0656595987551332
21
-122.22036737292373
31
0
0
SPLINE
5
211
100
AcDbEntity
8
0
100
AcDbSpline
70
0
71
3
72
9
73
5
74
3
42
0.000000001
43
0.0000000001
44
0.0000000001
40
0
40
0
40
0
40
0
40
0.021488123371739821
40
0.044601664180522207
40
0.044601664180522207
40
0.044601664180522207
40
0.044601664180522207
10
-1.0656595987551332
20
-122.22036737292373
30
0
10
-1.1316193200854463
20
-122.24997899314879
30
0
10
-1.2685281273051818
20
-122.31144213342725
30
0
10
-1.4185690121374428
20
-122.3183502018437
30
0
10
-1.4963234228365541
20
-122.32193011134231
30
0
11
-1.0656595987551332
21
-122.22036737292373
31
0
11
-1.266586856292975
21
-122.29653942673767
31
0
11
-1.4963234228365541
21
-122.32193011134231
31
0
0
LINE
5
212
100
AcDbEntity
8
0
100
AcDbLine
10
-1.4963234228365541
20
-122.3219301113423
30
0
11
-2.449448184417975
21
-122.32193011134231
31
0
0
LINE
5
213
100
AcDbEntity
8
0
100
AcDbLine
10
-2.449448184417975
20
-122.32193011134231
30
0
11
-2.449448184417975
21
-121.94302383153999
31
0
0
LWPOLYLINE
5
214
100
AcDbEntity
8
0
100
AcDbPolyline
90
4
70
1
43
0.0
10
-2.224838809417975
20
-120.68130511134231
10
-2.6232767862551332
20
-120.68130511134231
10
-2.6232767862551332
20
-123.52310198634231
10
-2.224838809417975
20
-123.52310198634231
0
LWPOLYLINE
5
215
100
AcDbEntity
8
0
100
AcDbPolyline
90
4
70
1
43
0.0
10
-1.2795270246737123
20
-122.14419561713302
10
-1.6760111612551332
20
-122.23403948634231
10
-1.0256207746737123
20
-123.52310198634231
10
-0.55296428625513316
20
-123.52310198634231
0
LWPOLYLINE
5
216
100
AcDbEntity
8
0
100
AcDbPolyline
90
4
70
1
43
0.0
10
0.79469196374486684
20
-120.91567981331909
10
0.39625398690770863
20
-120.91567981331909
10
0.39625398690770863
20
-123.52310198634231
10
0.79469196374486684
20
-123.52310198634231
0
LWPOLYLINE
5
217
100
AcDbEntity
8
0
100
AcDbPolyline
90
4
70
1
43
0.0
10
1.5974258619077086
20
-120.68325805752838
10
-0.40647991125513316
20
-120.68325805752838
10
-0.40647991125513316
20
-121.0621643373307
10
1.5974258619077086
20
-121.0621643373307
0
ENDSEC
0
SECTION
2
OBJECTS
0
DICTIONARY
5
C
100
AcDbDictionary
3
ACAD_GROUP
350
D
3
ACAD_MLINESTYLE
350
17
0
DICTIONARY
5
D
100
AcDbDictionary
0
DICTIONARY
5
1A
330
C
100
AcDbDictionary
0
DICTIONARY
5
17
100
AcDbDictionary
0
ENDSEC
0
EOF
