0
SECTION
2
HEADER
9
$INSUNITS
70
4
9
$ACADVER
1
AC1014
9
$HANDSEED
5
FFFF
0
ENDSEC
0
SECTION
2
TABLES
0
TABLE
2
VPORT
5
8
100
AcDbSymbolTable
0
ENDTAB
0
TABLE
2
LTYPE
5
5
100
AcDbSymbolTable
0
LTYPE
5
14
100
AcDbSymbolTableRecord
100
AcDbLinetypeTableRecord
2
BYBLOCK
70
0
0
LTYPE
5
15
100
AcDbSymbolTableRecord
100
AcDbLinetypeTableRecord
2
BYLAYER
70
0
0
ENDTAB
0
TABLE
2
LAYER
5
2
100
AcDbSymbolTable
70
2
0
LAYER
5
50
100
AcDbSymbolTableRecord
100
AcDbLayerTableRecord
2
0
70
0
6
CONTINUOUS
0
ENDTAB
0
TABLE
2
STYLE
5
3
100
AcDbSymbolTable
70
1
0
STYLE
5
11
100
AcDbSymbolTableRecord
100
AcDbTextStyleTableRecord
2
STANDARD
70
0
0
ENDTAB
0
TABLE
2
VIEW
5
6
100
AcDbSymbolTable
70
0
0
ENDTAB
0
TABLE
2
UCS
5
7
100
AcDbSymbolTable
70
0
0
ENDTAB
0
TABLE
2
APPID
5
9
100
AcDbSymbolTable
70
2
0
APPID
5
12
100
AcDbSymbolTableRecord
100
AcDbRegAppTableRecord
2
ACAD
70
0
0
ENDTAB
0
TABLE
2
DIMSTYLE
5
A
100
AcDbSymbolTable
70
1
0
ENDTAB
0
TABLE
2
BLOCK_RECORD
5
1
100
AcDbSymbolTable
70
1
0
BLOCK_RECORD
5
1F
100
AcDbSymbolTableRecord
100
AcDbBlockTableRecord
2
*MODEL_SPACE
0
BLOCK_RECORD
5
1B
100
AcDbSymbolTableRecord
100
AcDbBlockTableRecord
2
*PAPER_SPACE
0
ENDTAB
0
ENDSEC
0
SECTION
2
BLOCKS
0
BLOCK
5
20
100
AcDbEntity
100
AcDbBlockBegin
2
*MODEL_SPACE
0
ENDBLK
5
21
100
AcDbEntity
100
AcDbBlockEnd
0
BLOCK
5
1C
100
AcDbEntity
100
AcDbBlockBegin
2
*PAPER_SPACE
0
ENDBLK
5
1D
100
AcDbEntity
100
AcDbBlockEnd
0
ENDSEC
0
SECTION
2
ENTITIES
0
LWPOLYLINE
5
100
100
AcDbEntity
8
0
100
AcDbPolyline
90
4
70
1
43
0.0
10
-7.2270833333332973
20
0
10
-180
20
0
10
-180
20
-132.29166666666669
10
-7.2270833333332973
20
-132.29166666666669
0
SPLINE
5
101
100
AcDbEntity
8
0
100
AcDbSpline
70
1064
71
3
72
8
73
4
74
0
42
0.000000001
43
0.0000000001
44
0.0000000001
40
0
40
0
40
0
40
0
40
1
40
1
40
1
40
1
10
-105.38749999999999
20
-5.2916666666666679
30
0
10
-103.79999999999998
20
-5.3710414648056037
30
0
10
-102.21249999999998
20
-5.0270833333333345
30
0
10
-100.625
20
-5.0270833333333345
30
0
0
SPLINE
5
102
100
AcDbEntity
8
0
100
AcDbSpline
70
1064
71
3
72
8
73
4
74
0
42
0.000000001
43
0.0000000001
44
0.0000000001
40
0
40
0
40
0
40
0
40
1
40
1
40
1
40
1
10
-100.625
20
-5.0270833333333345
30
0
10
-97.529371770222966
20
-5.0270833333333345
30
0
10
-94.460211563110335
20
-5.0270833333333345
30
0
10
-91.364583333333314
20
-5.0270833333333345
30
0
0
SPLINE
5
103
100
AcDbEntity
8
0
100
AcDbSpline
70
1064
71
3
72
8
73
4
74
0
42
0.000000001
43
0.0000000001
44
0.0000000001
40
0
40
0
40
0
40
0
40
1
40
1
40
1
40
1
10
-91.364583333333314
20
-5.0270833333333345
30
0
10
-89.72416343688964
20
-5.0270833333333345
30
0
10
-88.083751614888484
20
-4.9741664648056041
30
0
10
-86.469791666666652
20
-5.1858334342638654
30
0
0
SPLINE
5
104
100
AcDbEntity
8
0
100
AcDbSpline
70
1064
71
3
72
8
73
4
74
0
42
0.000000001
43
0.0000000001
44
0.0000000001
40
0
40
0
40
0
40
0
40
1
40
1
40
1
40
1
10
-86.469791666666652
20
-5.1858334342638654
30
0
10
-84.749999999999972
20
-5.4239583333333341
30
0
10
-82.977288436889637
20
-5.1064581314722703
30
0
10
-81.283956718444813
20
-5.4768752018610645
30
0
0
SPLINE
5
105
100
AcDbEntity
8
0
100
AcDbSpline
70
1064
71
3
72
8
73
4
74
0
42
0.000000001
43
0.0000000001
44
0.0000000001
40
0
40
0
40
0
40
0
40
1
40
1
40
1
40
1
10
-81.283956718444813
20
-5.4768752018610645
30
0
10
-77.9502051035563
20
-5.6091668685277307
30
0
10
-74.642913436889629
20
-6.0589582324028024
30
0
10
-71.362081718444813
20
-6.455833232402802
30
0
0
SPLINE
5
106
100
AcDbEntity
8
0
100
AcDbSpline
70
1064
71
3
72
8
73
4
74
0
42
0.000000001
43
0.0000000001
44
0.0000000001
40
0
40
0
40
0
40
0
40
1
40
1
40
1
40
1
10
-71.362081718444813
20
-6.455833232402802
30
0
10
-62.94833494822182
20
-7.6464582324028028
30
0
10
-54.613959948221833
20
-9.5514579296112085
30
0
10
-46.75583171844481
20
-12.805833737055464
30
0
0
SPLINE
5
107
100
AcDbEntity
8
0
100
AcDbSpline
70
1064
71
3
72
8
73
4
74
0
42
0.000000001
43
0.0000000001
44
0.0000000001
40
0
40
0
40
0
40
0
40
1
40
1
40
1
40
1
10
-46.75583171844481
20
-12.805833737055464
30
0
10
-39.426878229776996
20
-15.848542070388795
30
0
10
-32.547711563110333
20
-20.161249192555747
30
0
10
-26.991461563110324
20
-25.849790859222416
30
0
0
SPLINE
5
108
100
AcDbEntity
8
0
100
AcDbSpline
70
1064
71
3
72
8
73
4
74
0
42
0.000000001
43
0.0000000001
44
0.0000000001
40
0
40
0
40
0
40
0
40
1
40
1
40
1
40
1
10
-26.991461563110324
20
-25.849790859222416
30
0
10
-24.028124999999978
20
-29.051250807444259
30
0
10
-21.329371770222956
20
-32.543750000000003
30
0
10
-19.292076873779287
20
-36.406668281555177
30
0
0
SPLINE
5
109
100
AcDbEntity
8
0
100
AcDbSpline
70
1064
71
3
72
8
73
4
74
0
42
0.000000001
43
0.0000000001
44
0.0000000001
40
0
40
0
40
0
40
0
40
1
40
1
40
1
40
1
10
-19.292076873779287
20
-36.406668281555177
30
0
10
-16.778535207112597
20
-40.931040859222421
30
0
10
-15.058743540445931
20
-45.852292474110925
30
0
10
-13.894586563110316
20
-50.852915859222421
30
0
0
SPLINE
5
110
100
AcDbEntity
8
0
100
AcDbSpline
70
1064
71
3
72
8
73
4
74
0
42
0.000000001
43
0.0000000001
44
0.0000000001
40
0
40
0
40
0
40
0
40
1
40
1
40
1
40
1
10
-13.894586563110316
20
-50.852915859222421
30
0
10
-13.550631459554019
20
-52.810834948221846
30
0
10
-12.942076873779271
20
-54.74229005177817
30
0
10
-12.942076873779271
20
-56.753125000000004
30
0
0
LINE
5
111
100
AcDbEntity
8
0
100
AcDbLine
10
-12.942076873779271
20
-56.753125000000011
30
0
11
-13.233128229776995
21
-56.647293281555179
31
0
0
SPLINE
5
112
100
AcDbEntity
8
0
100
AcDbSpline
70
1064
71
3
72
8
73
4
74
0
42
0.000000001
43
0.0000000001
44
0.0000000001
40
0
40
0
40
0
40
0
40
1
40
1
40
1
40
1
10
-13.23312822977698
20
-56.647293281555179
30
0
10
-14.212089792887355
20
-50.112081718444834
30
0
10
-15.958333333333314
20
-43.629790051778166
30
0
10
-19.027493540445946
20
-37.756040859222416
30
0
0
SPLINE
5
113
100
AcDbEntity
8
0
100
AcDbSpline
70
1064
71
3
72
8
73
4
74
0
42
0.000000001
43
0.0000000001
44
0.0000000001
40
0
40
0
40
0
40
0
40
1
40
1
40
1
40
1
10
-19.027493540445946
20
-37.756040859222416
30
0
10
-21.5410352071126
20
-32.702499596277875
30
0
10
-25.060006459554014
20
-28.178125000000005
30
0
10
-29.134580103556296
20
-24.288750807444259
30
0
0
SPLINE
5
114
100
AcDbEntity
8
0
100
AcDbSpline
70
1064
71
3
72
8
73
4
74
0
42
0.000000001
43
0.0000000001
44
0.0000000001
40
0
40
0
40
0
40
0
40
1
40
1
40
1
40
1
10
-29.134580103556296
20
-24.288750807444259
30
0
10
-34.267503229776999
20
-19.605624596277874
30
0
10
-40.273548126220682
20
-15.927916868527731
30
0
10
-46.676459948221819
20
-13.282083535194399
30
0
0
SPLINE
5
115
100
AcDbEntity
8
0
100
AcDbSpline
70
1064
71
3
72
8
73
4
74
0
42
0.000000001
43
0.0000000001
44
0.0000000001
40
0
40
0
40
0
40
0
40
1
40
1
40
1
40
1
10
-46.676459948221819
20
-13.282083535194399
30
0
10
-55.831044896443665
20
-9.4456252018610662
30
0
10
-65.647080103556306
20
-7.4347917675971997
30
0
10
-75.489583333333314
20
-6.3764584342638662
30
0
0
SPLINE
5
116
100
AcDbEntity
8
0
100
AcDbSpline
70
1064
71
3
72
8
73
4
74
0
42
0.000000001
43
0.0000000001
44
0.0000000001
40
0
40
0
40
0
40
0
40
1
40
1
40
1
40
1
10
-75.489583333333314
20
-6.3764584342638662
30
0
10
-76.733128229776995
20
-6.2970831314722711
30
0
10
-77.9502051035563
20
-5.9795834342638665
30
0
10
-79.220209948221836
20
-6.0589582324028024
30
0
0
SPLINE
5
117
100
AcDbEntity
8
0
100
AcDbSpline
70
1064
71
3
72
8
73
4
74
0
42
0.000000001
43
0.0000000001
44
0.0000000001
40
0
40
0
40
0
40
0
40
1
40
1
40
1
40
1
10
-79.220209948221836
20
-6.0589582324028024
30
0
10
-80.966461563110329
20
-5.7414585351943979
30
0
10
-82.765624999999986
20
-5.9002081314722705
30
0
10
-84.538336563110335
20
-5.6356247981389371
30
0
0
SPLINE
5
118
100
AcDbEntity
8
0
100
AcDbSpline
70
1064
71
3
72
8
73
4
74
0
42
0.000000001
43
0.0000000001
44
0.0000000001
40
0
40
0
40
0
40
0
40
1
40
1
40
1
40
1
10
-84.538336563110335
20
-5.6356247981389371
30
0
10
-86.363959948221819
20
-5.4504167675971988
30
0
10
-88.216043281555159
20
-5.6620832324028028
30
0
10
-90.041666666666643
20
-5.50333313147227
30
0
0
SPLINE
5
119
100
AcDbEntity
8
0
100
AcDbSpline
70
1064
71
3
72
8
73
4
74
0
42
0.000000001
43
0.0000000001
44
0.0000000001
40
0
40
0
40
0
40
0
40
1
40
1
40
1
40
1
10
-90.041666666666643
20
-5.50333313147227
30
0
10
-91.523334948221844
20
-5.2916666666666679
30
0
10
-93.031455103556311
20
-5.3974998990694694
30
0
10
-94.539583333333326
20
-5.3710414648056037
30
0
0
SPLINE
5
120
100
AcDbEntity
8
0
100
AcDbSpline
70
1064
71
3
72
8
73
4
74
0
42
0.000000001
43
0.0000000001
44
0.0000000001
40
0
40
0
40
0
40
0
40
1
40
1
40
1
40
1
10
-94.539583333333326
20
-5.3710414648056037
30
0
10
-96.04771156311034
20
-5.3974998990694694
30
0
10
-97.555831718444807
20
-5.2916666666666679
30
0
10
-99.037499999999994
20
-5.50333313147227
30
0
0
SPLINE
5
121
100
AcDbEntity
8
0
100
AcDbSpline
70
1064
71
3
72
8
73
4
74
0
42
0.000000001
43
0.0000000001
44
0.0000000001
40
0
40
0
40
0
40
0
40
1
40
1
40
1
40
1
10
-99.037499999999994
20
-5.50333313147227
30
0
10
-101.23353843688963
20
-5.6620832324028028
30
0
10
-103.45604489644367
20
-5.3974998990694694
30
0
10
-105.62562338511148
20
-5.794374899069469
30
0
0
SPLINE
5
122
100
AcDbEntity
8
0
100
AcDbSpline
70
1064
71
3
72
8
73
4
74
0
42
0.000000001
43
0.0000000001
44
0.0000000001
40
0
40
0
40
0
40
0
40
1
40
1
40
1
40
1
10
-105.62562338511148
20
-5.794374899069469
30
0
10
-108.32437661488851
20
-5.7679164648056034
30
0
10
-110.94374999999999
20
-6.2177083333333343
30
0
10
-113.61604328155516
20
-6.3764584342638662
30
0
0
SPLINE
5
123
100
AcDbEntity
8
0
100
AcDbSpline
70
1064
71
3
72
8
73
4
74
0
42
0.000000001
43
0.0000000001
44
0.0000000001
40
0
40
0
40
0
40
0
40
1
40
1
40
1
40
1
10
-113.61604328155516
20
-6.3764584342638662
30
0
10
-119.06645752588908
20
-7.117291565736136
30
0
10
-124.51687580744425
20
-7.9375000000000009
30
0
10
-129.78208252588905
20
-9.4985420703887957
30
0
0
SPLINE
5
124
100
AcDbEntity
8
0
100
AcDbSpline
70
1064
71
3
72
8
73
4
74
0
42
0.000000001
43
0.0000000001
44
0.0000000001
40
0
40
0
40
0
40
0
40
1
40
1
40
1
40
1
10
-129.78208252588905
20
-9.4985420703887957
30
0
10
-135.89395914077758
20
-11.191874798138938
30
0
10
-141.74124838511148
20
-13.943541868527731
30
0
10
-146.71541585922242
20
-17.938750807444258
30
0
0
SPLINE
5
125
100
AcDbEntity
8
0
100
AcDbSpline
70
1064
71
3
72
8
73
4
74
0
42
0.000000001
43
0.0000000001
44
0.0000000001
40
0
40
0
40
0
40
0
40
1
40
1
40
1
40
1
10
-146.71541585922242
20
-17.938750807444258
30
0
10
-150.92229126294453
20
-21.140208737055467
30
0
10
-154.52062419255574
20
-25.082500807444255
30
0
10
-157.43104085922241
20
-29.474583737055468
30
0
0
SPLINE
5
126
100
AcDbEntity
8
0
100
AcDbSpline
70
1064
71
3
72
8
73
4
74
0
42
0.000000001
43
0.0000000001
44
0.0000000001
40
0
40
0
40
0
40
0
40
1
40
1
40
1
40
1
10
-157.43104085922241
20
-29.474583737055468
30
0
10
-157.69562419255575
20
-29.871458737055466
30
0
10
-158.01312540372211
20
-30.268333737055464
30
0
10
-158.09249919255575
20
-30.744582525889083
30
0
0
SPLINE
5
127
100
AcDbEntity
8
0
100
AcDbSpline
70
1064
71
3
72
8
73
4
74
0
42
0.000000001
43
0.0000000001
44
0.0000000001
40
0
40
0
40
0
40
0
40
1
40
1
40
1
40
1
10
-158.09249919255575
20
-30.744582525889083
30
0
10
-157.48395873705545
20
-30.453541262944547
30
0
10
-157.24583333333334
20
-29.765625000000004
30
0
10
-156.79604247411092
20
-29.289374192555751
30
0
0
SPLINE
5
128
100
AcDbEntity
8
0
100
AcDbSpline
70
1064
71
3
72
8
73
4
74
0
42
0.000000001
43
0.0000000001
44
0.0000000001
40
0
40
0
40
0
40
0
40
1
40
1
40
1
40
1
10
-156.79604247411092
20
-29.289374192555751
30
0
10
-155.39375000000001
20
-27.860625807444258
30
0
10
-153.96499959627786
20
-26.458333333333339
30
0
10
-152.56270914077757
20
-25.056040859222417
30
0
0
SPLINE
5
129
100
AcDbEntity
8
0
100
AcDbSpline
70
1064
71
3
72
8
73
4
74
0
42
0.000000001
43
0.0000000001
44
0.0000000001
40
0
40
0
40
0
40
0
40
1
40
1
40
1
40
1
10
-152.56270914077757
20
-25.056040859222417
30
0
10
-150.31375080744425
20
-23.203957525889081
30
0
10
-148.03833252588907
20
-21.378334140777593
30
0
10
-145.52479085922241
20
-19.896665859222416
30
0
0
SPLINE
5
130
100
AcDbEntity
8
0
100
AcDbSpline
70
1064
71
3
72
8
73
4
74
0
42
0.000000001
43
0.0000000001
44
0.0000000001
40
0
40
0
40
0
40
0
40
1
40
1
40
1
40
1
10
-145.52479085922241
20
-19.896665859222416
30
0
10
-143.72562338511148
20
-18.758958737055462
30
0
10
-141.82062419255575
20
-17.806459140777591
30
0
10
-140.02145671844482
20
-16.695207929611207
30
0
0
SPLINE
5
131
100
AcDbEntity
8
0
100
AcDbSpline
70
1064
71
3
72
8
73
4
74
0
42
0.000000001
43
0.0000000001
44
0.0000000001
40
0
40
0
40
0
40
0
40
1
40
1
40
1
40
1
10
-140.02145671844482
20
-16.695207929611207
30
0
10
-132.9306266148885
20
-12.408958737055462
30
0
10
-124.75499919255574
20
-9.9483329296112082
30
0
10
-116.49999999999999
20
-9.5250000000000021
30
0
0
SPLINE
5
132
100
AcDbEntity
8
0
100
AcDbSpline
70
1064
71
3
72
8
73
4
74
0
42
0.000000001
43
0.0000000001
44
0.0000000001
40
0
40
0
40
0
40
0
40
1
40
1
40
1
40
1
10
-116.49999999999999
20
-9.5250000000000021
30
0
10
-113.51020752588907
20
-9.604374798138938
30
0
10
-110.4939551035563
20
-9.3133335351943973
30
0
10
-107.53062661488852
20
-9.7631254037221282
30
0
0
SPLINE
5
133
100
AcDbEntity
8
0
100
AcDbSpline
70
1064
71
3
72
8
73
4
74
0
42
0.000000001
43
0.0000000001
44
0.0000000001
40
0
40
0
40
0
40
0
40
1
40
1
40
1
40
1
10
-107.53062661488852
20
-9.7631254037221282
30
0
10
-103.40312499999999
20
-9.8425002018610659
30
0
10
-99.328543281555156
20
-10.477499596277875
30
0
10
-95.227501614888496
20
-11.00666626294454
30
0
0
SPLINE
5
134
100
AcDbEntity
8
0
100
AcDbSpline
70
1064
71
3
72
8
73
4
74
0
42
0.000000001
43
0.0000000001
44
0.0000000001
40
0
40
0
40
0
40
0
40
1
40
1
40
1
40
1
10
-95.227501614888496
20
-11.00666626294454
30
0
10
-86.522711563110335
20
-12.329582929611206
30
0
10
-77.870833333333309
20
-14.287500000000001
30
0
10
-69.483538436889631
20
-16.986249192555746
30
0
0
SPLINE
5
135
100
AcDbEntity
8
0
100
AcDbSpline
70
1064
71
3
72
8
73
4
74
0
42
0.000000001
43
0.0000000001
44
0.0000000001
40
0
40
0
40
0
40
0
40
1
40
1
40
1
40
1
10
-69.483538436889631
20
-16.986249192555746
30
0
10
-63.054166666666646
20
-19.076457929611209
30
0
10
-56.757086563110342
20
-21.589999596277877
30
0
10
-50.830413436889629
20
-24.817917474110924
30
0
0
SPLINE
5
136
100
AcDbEntity
8
0
100
AcDbSpline
70
1064
71
3
72
8
73
4
74
0
42
0.000000001
43
0.0000000001
44
0.0000000001
40
0
40
0
40
0
40
0
40
1
40
1
40
1
40
1
10
-50.830413436889629
20
-24.817917474110924
30
0
10
-46.332496770222974
20
-27.252083333333339
30
0
10
-42.152083333333309
20
-30.321249596277873
30
0
10
-38.606660207112604
20
-33.998958333333334
30
0
0
SPLINE
5
137
100
AcDbEntity
8
0
100
AcDbSpline
70
1064
71
3
72
8
73
4
74
0
42
0.000000001
43
0.0000000001
44
0.0000000001
40
0
40
0
40
0
40
0
40
1
40
1
40
1
40
1
10
-38.606660207112604
20
-33.998958333333334
30
0
10
-31.515830103556297
20
-41.16916828155518
30
0
10
-26.77979812622068
20
-50.641248385111496
30
0
10
-25.218749999999979
20
-60.589583333333337
30
0
0
SPLINE
5
138
100
AcDbEntity
8
0
100
AcDbSpline
70
1064
71
3
72
8
73
4
74
0
42
0.000000001
43
0.0000000001
44
0.0000000001
40
0
40
0
40
0
40
0
40
1
40
1
40
1
40
1
10
-25.218749999999979
20
-60.589583333333337
30
0
10
-24.874794896443664
20
-61.886040051778167
30
0
10
-24.980618540445949
20
-63.235416666666673
30
0
10
-24.689583333333314
20
-64.558333333333337
30
0
0
SPLINE
5
139
100
AcDbEntity
8
0
100
AcDbSpline
70
1064
71
3
72
8
73
4
74
0
42
0.000000001
43
0.0000000001
44
0.0000000001
40
0
40
0
40
0
40
0
40
1
40
1
40
1
40
1
10
-24.689583333333314
20
-64.558333333333337
30
0
10
-24.742503229776993
20
-65.881250000000009
30
0
10
-24.504371770222964
20
-67.20416666666668
30
0
10
-24.66313145955402
20
-68.527083333333337
30
0
0
LINE
5
140
100
AcDbEntity
8
0
100
AcDbLine
10
-24.66313145955402
20
-68.527083333333337
30
0
11
-24.92771479288735
21
-68.553543281555179
31
0
0
SPLINE
5
141
100
AcDbEntity
8
0
100
AcDbSpline
70
1064
71
3
72
8
73
4
74
0
42
0.000000001
43
0.0000000001
44
0.0000000001
40
0
40
0
40
0
40
0
40
1
40
1
40
1
40
1
10
-24.927714792887343
20
-68.553543281555193
30
0
10
-24.927714792887343
20
-56.038750807444266
30
0
10
-29.848958333333311
20
-43.52395833333334
30
0
10
-38.606660207112604
20
-34.554584948221844
30
0
0
SPLINE
5
142
100
AcDbEntity
8
0
100
AcDbSpline
70
1064
71
3
72
8
73
4
74
0
42
0.000000001
43
0.0000000001
44
0.0000000001
40
0
40
0
40
0
40
0
40
1
40
1
40
1
40
1
10
-38.606660207112604
20
-34.554584948221844
30
0
10
-39.45333010355629
20
-33.443333737055468
30
0
10
-40.670423126220676
20
-32.728957525889079
30
0
10
-41.569996770222971
20
-31.697084140777591
30
0
0
SPLINE
5
143
100
AcDbEntity
8
0
100
AcDbSpline
70
1064
71
3
72
8
73
4
74
0
42
0.000000001
43
0.0000000001
44
0.0000000001
40
0
40
0
40
0
40
0
40
1
40
1
40
1
40
1
10
-41.569996770222971
20
-31.697084140777591
30
0
10
-44.586253229776993
20
-29.051250807444259
30
0
10
-47.893544896443672
20
-26.775832525889083
30
0
10
-51.438959948221822
20
-24.92374919255575
30
0
0
SPLINE
5
144
100
AcDbEntity
8
0
100
AcDbSpline
70
1064
71
3
72
8
73
4
74
0
42
0.000000001
43
0.0000000001
44
0.0000000001
40
0
40
0
40
0
40
0
40
1
40
1
40
1
40
1
10
-51.438959948221822
20
-24.92374919255575
30
0
10
-57.656668281555156
20
-21.563541666666669
30
0
10
-64.271251614888484
20
-19.050000000000004
30
0
10
-70.965206718444804
20
-16.933333333333337
30
0
0
SPLINE
5
145
100
AcDbEntity
8
0
100
AcDbSpline
70
1064
71
3
72
8
73
4
74
0
42
0.000000001
43
0.0000000001
44
0.0000000001
40
0
40
0
40
0
40
0
40
1
40
1
40
1
40
1
10
-70.965206718444804
20
-16.933333333333337
30
0
10
-81.813123385111481
20
-13.573124798138938
30
0
10
-93.031455103556311
20
-11.377083333333335
30
0
10
-104.30270671844482
20
-10.318750000000001
30
0
0
SPLINE
5
146
100
AcDbEntity
8
0
100
AcDbSpline
70
1064
71
3
72
8
73
4
74
0
42
0.000000001
43
0.0000000001
44
0.0000000001
40
0
40
0
40
0
40
0
40
1
40
1
40
1
40
1
10
-104.30270671844482
20
-10.318750000000001
30
0
10
-105.91666666666666
20
-10.398124798138937
30
0
10
-107.47770671844481
20
-9.9218750000000018
30
0
10
-109.09166666666665
20
-10.054166666666669
30
0
0
SPLINE
5
147
100
AcDbEntity
8
0
100
AcDbSpline
70
1064
71
3
72
8
73
4
74
0
42
0.000000001
43
0.0000000001
44
0.0000000001
40
0
40
0
40
0
40
0
40
1
40
1
40
1
40
1
10
-109.09166666666665
20
-10.054166666666669
30
0
10
-115.33583494822183
20
-9.5514579296112085
30
0
10
-121.71229085922241
20
-10.054166666666669
30
0
10
-127.77125161488851
20
-11.773958333333335
30
0
0
SPLINE
5
148
100
AcDbEntity
8
0
100
AcDbSpline
70
1064
71
3
72
8
73
4
74
0
42
0.000000001
43
0.0000000001
44
0.0000000001
40
0
40
0
40
0
40
0
40
1
40
1
40
1
40
1
10
-127.77125161488851
20
-11.773958333333335
30
0
10
-131.18437499999999
20
-12.832291666666668
30
0
10
-134.59749838511146
20
-14.049374596277875
30
0
10
-137.69312661488851
20
-15.875000000000002
30
0
0
LINE
5
149
100
AcDbEntity
8
0
100
AcDbLine
10
-137.69312661488848
20
-15.875000000000002
30
0
11
-137.93125000000001
21
-15.848542070388795
31
0
0
SPLINE
5
150
100
AcDbEntity
8
0
100
AcDbSpline
70
1064
71
3
72
8
73
4
74
0
42
0.000000001
43
0.0000000001
44
0.0000000001
40
0
40
0
40
0
40
0
40
1
40
1
40
1
40
1
10
-137.93125000000001
20
-15.848542070388795
30
0
10
-138.01062580744426
20
-15.927916868527731
30
0
10
-138.1429174741109
20
-16.11312540372213
30
0
10
-138.22229328155518
20
-16.192500201861066
30
0
0
SPLINE
5
151
100
AcDbEntity
8
0
100
AcDbSpline
70
1064
71
3
72
8
73
4
74
0
42
0.000000001
43
0.0000000001
44
0.0000000001
40
0
40
0
40
0
40
0
40
1
40
1
40
1
40
1
10
-138.22229328155518
20
-16.192500201861066
30
0
10
-138.24874919255575
20
-16.21895813147227
30
0
10
-138.328125
20
-16.271875000000001
30
0
10
-138.35458494822183
20
-16.298332929611206
30
0
0
SPLINE
5
152
100
AcDbEntity
8
0
100
AcDbSpline
70
1064
71
3
72
8
73
4
74
0
42
0.000000001
43
0.0000000001
44
0.0000000001
40
0
40
0
40
0
40
0
40
1
40
1
40
1
40
1
10
-138.35458494822183
20
-16.298332929611206
30
0
10
-138.328125
20
-16.271875000000001
30
0
10
-138.24874919255575
20
-16.21895813147227
30
0
10
-138.22229328155518
20
-16.192500201861066
30
0
0
SPLINE
5
153
100
AcDbEntity
8
0
100
AcDbSpline
70
1064
71
3
72
8
73
4
74
0
42
0.000000001
43
0.0000000001
44
0.0000000001
40
0
40
0
40
0
40
0
40
1
40
1
40
1
40
1
10
-138.22229328155518
20
-16.192500201861066
30
0
10
-138.09000161488851
20
-16.11312540372213
30
0
10
-137.82541828155516
20
-15.954374798138939
30
0
10
-137.69312661488851
20
-15.875000000000002
30
0
0
SPLINE
5
154
100
AcDbEntity
8
0
100
AcDbSpline
70
1064
71
3
72
8
73
4
74
0
42
0.000000001
43
0.0000000001
44
0.0000000001
40
0
40
0
40
0
40
0
40
1
40
1
40
1
40
1
10
-137.69312661488851
20
-15.875000000000002
30
0
10
-136.66124919255572
20
-15.795625201861066
30
0
10
-135.78812338511148
20
-15.213541666666668
30
0
10
-134.80916585922242
20
-15.001875201861065
30
0
0
SPLINE
5
155
100
AcDbEntity
8
0
100
AcDbSpline
70
1064
71
3
72
8
73
4
74
0
42
0.000000001
43
0.0000000001
44
0.0000000001
40
0
40
0
40
0
40
0
40
1
40
1
40
1
40
1
10
-134.80916585922242
20
-15.001875201861065
30
0
10
-130.9462516148885
20
-13.731875403722128
30
0
10
-126.89812580744425
20
-13.070417070388796
30
0
10
-122.87645994822184
20
-12.700000000000003
30
0
0
SPLINE
5
156
100
AcDbEntity
8
0
100
AcDbSpline
70
1064
71
3
72
8
73
4
74
0
42
0.000000001
43
0.0000000001
44
0.0000000001
40
0
40
0
40
0
40
0
40
1
40
1
40
1
40
1
10
-122.87645994822184
20
-12.700000000000003
30
0
10
-120.73333333333332
20
-12.700000000000003
30
0
10
-118.61666666666665
20
-12.700000000000003
30
0
10
-116.47354005177814
20
-12.700000000000003
30
0
0
SPLINE
5
157
100
AcDbEntity
8
0
100
AcDbSpline
70
1064
71
3
72
8
73
4
74
0
42
0.000000001
43
0.0000000001
44
0.0000000001
40
0
40
0
40
0
40
0
40
1
40
1
40
1
40
1
10
-116.47354005177814
20
-12.700000000000003
30
0
10
-115.60041828155516
20
-12.779374798138939
30
0
10
-114.72729247411093
20
-13.017500201861065
30
0
10
-113.85416666666666
20
-12.964583333333335
30
0
0
SPLINE
5
158
100
AcDbEntity
8
0
100
AcDbSpline
70
1064
71
3
72
8
73
4
74
0
42
0.000000001
43
0.0000000001
44
0.0000000001
40
0
40
0
40
0
40
0
40
1
40
1
40
1
40
1
10
-113.85416666666666
20
-12.964583333333335
30
0
10
-109.753125
20
-13.520207929611207
30
0
10
-105.70500322977701
20
-14.499166464805606
30
0
10
-101.84208494822184
20
-16.033749596277875
30
0
0
SPLINE
5
159
100
AcDbEntity
8
0
100
AcDbSpline
70
1064
71
3
72
8
73
4
74
0
42
0.000000001
43
0.0000000001
44
0.0000000001
40
0
40
0
40
0
40
0
40
1
40
1
40
1
40
1
10
-101.84208494822184
20
-16.033749596277875
30
0
10
-97.291248385111473
20
-17.727083333333336
30
0
10
-93.190206718444813
20
-20.372916666666669
30
0
10
-88.98333333333332
20
-22.780624596277875
30
0
0
SPLINE
5
160
100
AcDbEntity
8
0
100
AcDbSpline
70
1064
71
3
72
8
73
4
74
0
42
0.000000001
43
0.0000000001
44
0.0000000001
40
0
40
0
40
0
40
0
40
1
40
1
40
1
40
1
10
-88.98333333333332
20
-22.780624596277875
30
0
10
-69.562918281555156
20
-34.025418281555183
30
0
10
-50.142503229777006
20
-45.296665859222422
30
0
10
-30.669160207112611
20
-56.515001614888519
30
0
0
SPLINE
5
161
100
AcDbEntity
8
0
100
AcDbSpline
70
1064
71
3
72
8
73
4
74
0
42
0.000000001
43
0.0000000001
44
0.0000000001
40
0
40
0
40
0
40
0
40
1
40
1
40
1
40
1
10
-30.669160207112611
20
-56.515001614888519
30
0
10
-30.325205103556296
20
-56.779584948221853
30
0
10
-29.663746770222961
20
-56.858956718444837
30
0
10
-29.690214792887346
20
-57.441043281555181
30
0
0
SPLINE
5
162
100
AcDbEntity
8
0
100
AcDbSpline
70
1064
71
3
72
8
73
4
74
0
42
0.000000001
43
0.0000000001
44
0.0000000001
40
0
40
0
40
0
40
0
40
1
40
1
40
1
40
1
10
-29.690214792887346
20
-57.441043281555181
30
0
10
-29.954798126220687
20
-57.335207525889089
30
0
10
-30.192913436889626
20
-57.229375807444271
30
0
10
-30.431044896443655
20
-57.097084140777596
30
0
0
SPLINE
5
163
100
AcDbEntity
8
0
100
AcDbSpline
70
1064
71
3
72
8
73
4
74
0
42
0.000000001
43
0.0000000001
44
0.0000000001
40
0
40
0
40
0
40
0
40
1
40
1
40
1
40
1
10
-30.431044896443655
20
-57.097084140777596
30
0
10
-47.311458333333306
20
-47.333956718444831
30
0
10
-64.19187177022296
20
-37.57083333333334
30
0
10
-81.072293281555147
20
-27.807707929611212
30
0
0
SPLINE
5
164
100
AcDbEntity
8
0
100
AcDbSpline
70
1064
71
3
72
8
73
4
74
0
42
0.000000001
43
0.0000000001
44
0.0000000001
40
0
40
0
40
0
40
0
40
1
40
1
40
1
40
1
10
-81.072293281555147
20
-27.807707929611212
30
0
10
-86.390419896443674
20
-24.764999596277875
30
0
10
-91.65562661488849
20
-21.616457525889082
30
0
10
-97.000205103556297
20
-18.653125000000003
30
0
0
SPLINE
5
165
100
AcDbEntity
8
0
100
AcDbSpline
70
1064
71
3
72
8
73
4
74
0
42
0.000000001
43
0.0000000001
44
0.0000000001
40
0
40
0
40
0
40
0
40
1
40
1
40
1
40
1
10
-97.000205103556297
20
-18.653125000000003
30
0
10
-102.08020833333333
20
-15.980833737055463
30
0
10
-107.63645833333331
20
-14.208125201861066
30
0
10
-113.32499999999999
20
-13.493750000000002
30
0
0
SPLINE
5
166
100
AcDbEntity
8
0
100
AcDbSpline
70
1064
71
3
72
8
73
4
74
0
42
0.000000001
43
0.0000000001
44
0.0000000001
40
0
40
0
40
0
40
0
40
1
40
1
40
1
40
1
10
-113.32499999999999
20
-13.493750000000002
30
0
10
-115.41520671844481
20
-13.149791868527732
30
0
10
-117.55833333333331
20
-13.202708737055461
30
0
10
-119.675
20
-12.964583333333335
30
0
0
SPLINE
5
167
100
AcDbEntity
8
0
100
AcDbSpline
70
1064
71
3
72
8
73
4
74
0
42
0.000000001
43
0.0000000001
44
0.0000000001
40
0
40
0
40
0
40
0
40
1
40
1
40
1
40
1
10
-119.675
20
-12.964583333333335
30
0
10
-122.42666505177816
20
-13.17624979813894
30
0
10
-125.17833414077758
20
-13.22916666666667
30
0
10
-127.90354328155516
20
-13.731875403722128
30
0
0
SPLINE
5
168
100
AcDbEntity
8
0
100
AcDbSpline
70
1064
71
3
72
8
73
4
74
0
42
0.000000001
43
0.0000000001
44
0.0000000001
40
0
40
0
40
0
40
0
40
1
40
1
40
1
40
1
10
-127.90354328155516
20
-13.731875403722128
30
0
10
-136.1585424741109
20
-15.081250000000001
30
0
10
-144.04312661488851
20
-18.626667070388795
30
0
10
-150.52541626294453
20
-23.891875807444258
30
0
0
SPLINE
5
169
100
AcDbEntity
8
0
100
AcDbSpline
70
1064
71
3
72
8
73
4
74
0
42
0.000000001
43
0.0000000001
44
0.0000000001
40
0
40
0
40
0
40
0
40
1
40
1
40
1
40
1
10
-150.52541626294453
20
-23.891875807444258
30
0
10
-153.46229085922241
20
-26.246665859222418
30
0
10
-156.05520833333333
20
-28.971875000000004
30
0
10
-158.43645833333335
20
-31.855833737055463
30
0
0
SPLINE
5
170
100
AcDbEntity
8
0
100
AcDbSpline
70
1064
71
3
72
8
73
4
74
0
42
0.000000001
43
0.0000000001
44
0.0000000001
40
0
40
0
40
0
40
0
40
1
40
1
40
1
40
1
10
-158.43645833333335
20
-31.855833737055463
30
0
10
-164.68062459627788
20
-39.978543281555183
30
0
10
-168.51708292961121
20
-50.085625807444259
30
0
10
-168.62291666666667
20
-60.377915859222419
30
0
0
LINE
5
171
100
AcDbEntity
8
0
100
AcDbLine
10
-168.62291666666667
20
-60.377915859222412
30
0
11
-168.38479126294456
21
-60.351459948221844
31
0
0
SPLINE
5
172
100
AcDbEntity
8
0
100
AcDbSpline
70
1064
71
3
72
8
73
4
74
0
42
0.000000001
43
0.0000000001
44
0.0000000001
40
0
40
0
40
0
40
0
40
1
40
1
40
1
40
1
10
-168.38479126294456
20
-60.351459948221859
30
0
10
-168.43770813147228
20
-58.711040051778163
30
0
10
-167.82916666666665
20
-57.176459948221847
30
0
10
-167.51166646480559
20
-55.615415859222423
30
0
0
SPLINE
5
173
100
AcDbEntity
8
0
100
AcDbSpline
70
1064
71
3
72
8
73
4
74
0
42
0.000000001
43
0.0000000001
44
0.0000000001
40
0
40
0
40
0
40
0
40
1
40
1
40
1
40
1
10
-167.51166646480559
20
-55.615415859222423
30
0
10
-165.65958313147229
20
-48.974376614888513
30
0
10
-162.64333373705546
20
-42.518540859222412
30
0
10
-157.98666747411093
20
-37.359165859222415
30
0
0
SPLINE
5
174
100
AcDbEntity
8
0
100
AcDbSpline
70
1064
71
3
72
8
73
4
74
0
42
0.000000001
43
0.0000000001
44
0.0000000001
40
0
40
0
40
0
40
0
40
1
40
1
40
1
40
1
10
-157.98666747411093
20
-37.359165859222415
30
0
10
-157.0077079296112
20
-36.380208333333343
30
0
10
-156.05520833333333
20
-35.427706718444831
30
0
10
-155.07625080744424
20
-34.448749192555752
30
0
0
SPLINE
5
175
100
AcDbEntity
8
0
100
AcDbSpline
70
1064
71
3
72
8
73
4
74
0
42
0.000000001
43
0.0000000001
44
0.0000000001
40
0
40
0
40
0
40
0
40
1
40
1
40
1
40
1
10
-155.07625080744424
20
-34.448749192555752
30
0
10
-149.75812419255573
20
-29.792082929611212
30
0
10
-143.11708494822184
20
-26.564167070388798
30
0
10
-136.07916666666665
20
-25.691041262944545
30
0
0
SPLINE
5
176
100
AcDbEntity
8
0
100
AcDbSpline
70
1064
71
3
72
8
73
4
74
0
42
0.000000001
43
0.0000000001
44
0.0000000001
40
0
40
0
40
0
40
0
40
1
40
1
40
1
40
1
10
-136.07916666666665
20
-25.691041262944545
30
0
10
-127.13624919255574
20
-24.526874192555749
30
0
10
-117.71708494822184
20
-27.622500403722128
30
0
10
-111.28770510355631
20
-33.946042474110925
30
0
0
SPLINE
5
177
100
AcDbEntity
8
0
100
AcDbSpline
70
1064
71
3
72
8
73
4
74
0
42
0.000000001
43
0.0000000001
44
0.0000000001
40
0
40
0
40
0
40
0
40
1
40
1
40
1
40
1
10
-111.28770510355631
20
-33.946042474110925
30
0
10
-108.74771156311034
20
-36.327292474110926
30
0
10
-106.65749677022298
20
-39.211249192555748
30
0
10
-105.09645671844481
20
-42.333333333333343
30
0
0
SPLINE
5
178
100
AcDbEntity
8
0
100
AcDbSpline
70
1064
71
3
72
8
73
4
74
0
42
0.000000001
43
0.0000000001
44
0.0000000001
40
0
40
0
40
0
40
0
40
1
40
1
40
1
40
1
10
-105.09645671844481
20
-42.333333333333343
30
0
10
-103.13854166666665
20
-46.090415859222418
30
0
10
-102.31833171844482
20
-50.297293281555184
30
0
10
-101.28645833333331
20
-54.398334948221851
30
0
0
SPLINE
5
179
100
AcDbEntity
8
0
100
AcDbSpline
70
1064
71
3
72
8
73
4
74
0
42
0.000000001
43
0.0000000001
44
0.0000000001
40
0
40
0
40
0
40
0
40
1
40
1
40
1
40
1
10
-101.28645833333331
20
-54.398334948221851
30
0
10
-100.20166505177815
20
-58.922707525889081
30
0
10
-99.196251614888496
20
-63.500000000000007
30
0
10
-98.296669896443674
20
-68.07728843688966
30
0
0
SPLINE
5
180
100
AcDbEntity
8
0
100
AcDbSpline
70
1064
71
3
72
8
73
4
74
0
42
0.000000001
43
0.0000000001
44
0.0000000001
40
0
40
0
40
0
40
0
40
1
40
1
40
1
40
1
10
-98.296669896443674
20
-68.07728843688966
30
0
10
-98.402501614888507
20
-68.050836563110366
30
0
10
-98.614165051778144
20
-67.997916666666669
30
0
10
-98.719996770222963
20
-67.971456718444841
30
0
0
SPLINE
5
181
100
AcDbEntity
8
0
100
AcDbSpline
70
1064
71
3
72
8
73
4
74
0
42
0.000000001
43
0.0000000001
44
0.0000000001
40
0
40
0
40
0
40
0
40
1
40
1
40
1
40
1
10
-98.719996770222963
20
-67.971456718444841
30
0
10
-100.14875322977701
20
-60.82770671844483
30
0
10
-101.7627051035563
20
-53.710416666666674
30
0
10
-103.66770833333332
20
-46.672498385111496
30
0
0
SPLINE
5
182
100
AcDbEntity
8
0
100
AcDbSpline
70
1064
71
3
72
8
73
4
74
0
42
0.000000001
43
0.0000000001
44
0.0000000001
40
0
40
0
40
0
40
0
40
1
40
1
40
1
40
1
10
-103.66770833333332
20
-46.672498385111496
30
0
10
-105.59916343688965
20
-40.61354166666667
30
0
10
-109.5150016148885
20
-35.242499192555748
30
0
10
-114.6743766148885
20
-31.511874596277877
30
0
0
SPLINE
5
183
100
AcDbEntity
8
0
100
AcDbSpline
70
1064
71
3
72
8
73
4
74
0
42
0.000000001
43
0.0000000001
44
0.0000000001
40
0
40
0
40
0
40
0
40
1
40
1
40
1
40
1
10
-114.6743766148885
20
-31.511874596277877
30
0
10
-121.8181266148885
20
-26.246665859222418
30
0
10
-131.39604247411091
20
-24.473958333333336
30
0
10
-139.9685408592224
20
-26.802292474110928
30
0
0
SPLINE
5
184
100
AcDbEntity
8
0
100
AcDbSpline
70
1064
71
3
72
8
73
4
74
0
42
0.000000001
43
0.0000000001
44
0.0000000001
40
0
40
0
40
0
40
0
40
1
40
1
40
1
40
1
10
-139.9685408592224
20
-26.802292474110928
30
0
10
-146.50375040372214
20
-28.575000000000003
30
0
10
-152.61562499999999
20
-32.067499192555751
30
0
10
-157.19291747411091
20
-37.094582525889088
30
0
0
SPLINE
5
185
100
AcDbEntity
8
0
100
AcDbSpline
70
1064
71
3
72
8
73
4
74
0
42
0.000000001
43
0.0000000001
44
0.0000000001
40
0
40
0
40
0
40
0
40
1
40
1
40
1
40
1
10
-157.19291747411091
20
-37.094582525889088
30
0
10
-160.76479247411095
20
-40.745833333333337
30
0
10
-163.27833313147227
20
-45.296665859222422
30
0
10
-165.20979126294452
20
-49.979790051778167
30
0
0
SPLINE
5
186
100
AcDbEntity
8
0
100
AcDbSpline
70
1064
71
3
72
8
73
4
74
0
42
0.000000001
43
0.0000000001
44
0.0000000001
40
0
40
0
40
0
40
0
40
1
40
1
40
1
40
1
10
-165.20979126294452
20
-49.979790051778167
30
0
10
-167.03541666666666
20
-54.451250807444261
30
0
10
-168.09375
20
-59.213750807444264
30
0
10
-168.62291666666667
20
-64.002706718444827
30
0
0
SPLINE
5
187
100
AcDbEntity
8
0
100
AcDbSpline
70
1064
71
3
72
8
73
4
74
0
42
0.000000001
43
0.0000000001
44
0.0000000001
40
0
40
0
40
0
40
0
40
1
40
1
40
1
40
1
10
-168.62291666666667
20
-64.002706718444827
30
0
10
-168.64937459627785
20
-65.299167474110931
30
0
10
-168.56999979813892
20
-66.622084140777588
30
0
10
-168.7287504037221
20
-67.918544896443692
30
0
0
SPLINE
5
188
100
AcDbEntity
8
0
100
AcDbSpline
70
1064
71
3
72
8
73
4
74
0
42
0.000000001
43
0.0000000001
44
0.0000000001
40
0
40
0
40
0
40
0
40
1
40
1
40
1
40
1
10
-168.7287504037221
20
-67.918544896443692
30
0
10
-168.83458313147227
20
-67.944996770222986
30
0
10
-169.0462495962779
20
-67.997916666666669
30
0
10
-169.15208333333334
20
-68.02437661488851
30
0
0
SPLINE
5
189
100
AcDbEntity
8
0
100
AcDbSpline
70
1064
71
3
72
8
73
4
74
0
42
0.000000001
43
0.0000000001
44
0.0000000001
40
0
40
0
40
0
40
0
40
1
40
1
40
1
40
1
10
-169.15208333333334
20
-68.02437661488851
30
0
10
-169.17854126294455
20
-65.378543281555181
30
0
10
-169.12562540372215
20
-62.706250000000011
30
0
10
-169.15208333333334
20
-60.060416666666676
30
0
0
SPLINE
5
190
100
AcDbEntity
8
0
100
AcDbSpline
70
1064
71
3
72
8
73
4
74
0
42
0.000000001
43
0.0000000001
44
0.0000000001
40
0
40
0
40
0
40
0
40
1
40
1
40
1
40
1
10
-169.15208333333334
20
-60.060416666666676
30
0
10
-168.78166626294455
20
-53.551665051778166
30
0
10
-167.32645792961119
20
-47.042917474110922
30
0
10
-164.52187500000002
20
-41.16916828155518
30
0
0
SPLINE
5
191
100
AcDbEntity
8
0
100
AcDbSpline
70
1064
71
3
72
8
73
4
74
0
42
0.000000001
43
0.0000000001
44
0.0000000001
40
0
40
0
40
0
40
0
40
1
40
1
40
1
40
1
10
-164.52187500000002
20
-41.16916828155518
30
0
10
-163.17250040372213
20
-38.12645994822185
30
0
10
-161.26749919255573
20
-35.374790859222415
30
0
10
-159.73291707038879
20
-32.43791626294454
30
0
0
SPLINE
5
192
100
AcDbEntity
8
0
100
AcDbSpline
70
1064
71
3
72
8
73
4
74
0
42
0.000000001
43
0.0000000001
44
0.0000000001
40
0
40
0
40
0
40
0
40
1
40
1
40
1
40
1
10
-159.73291707038879
20
-32.43791626294454
30
0
10
-158.19833292961121
20
-29.897916666666671
30
0
10
-156.55791707038878
20
-27.384375000000002
30
0
10
-154.65291585922242
20
-25.082500807444255
30
0
0
SPLINE
5
193
100
AcDbEntity
8
0
100
AcDbSpline
70
1064
71
3
72
8
73
4
74
0
42
0.000000001
43
0.0000000001
44
0.0000000001
40
0
40
0
40
0
40
0
40
1
40
1
40
1
40
1
10
-154.65291585922242
20
-25.082500807444255
30
0
10
-149.01729207038881
20
-18.256250000000001
30
0
10
-141.50312500000001
20
-12.938125403722129
30
0
10
-133.08937419255574
20
-10.107083535194398
30
0
0
SPLINE
5
194
100
AcDbEntity
8
0
100
AcDbSpline
70
1064
71
3
72
8
73
4
74
0
42
0.000000001
43
0.0000000001
44
0.0000000001
40
0
40
0
40
0
40
0
40
1
40
1
40
1
40
1
10
-133.08937419255574
20
-10.107083535194398
30
0
10
-125.44291747411091
20
-7.5141665657361356
30
0
10
-117.39958171844481
20
-6.2970831314722711
30
0
10
-109.38270994822183
20
-5.5562500000000004
30
0
0
SPLINE
5
195
100
AcDbEntity
8
0
100
AcDbSpline
70
1064
71
3
72
8
73
4
74
0
42
0.000000001
43
0.0000000001
44
0.0000000001
40
0
40
0
40
0
40
0
40
1
40
1
40
1
40
1
10
-109.38270994822183
20
-5.5562500000000004
30
0
10
-108.0333333333333
20
-5.6356247981389371
30
0
10
-106.73687661488849
20
-5.2387497981389375
30
0
10
-105.38749999999999
20
-5.2916666666666679
30
0
0
SPLINE
5
196
100
AcDbEntity
8
0
100
AcDbSpline
70
1064
71
3
72
8
73
4
74
0
42
0.000000001
43
0.0000000001
44
0.0000000001
40
0
40
0
40
0
40
0
40
1
40
1
40
1
40
1
10
-138.22229328155518
20
-16.192500201861066
30
0
10
-138.1429174741109
20
-16.11312540372213
30
0
10
-138.01062580744426
20
-15.927916868527731
30
0
10
-137.93125000000001
20
-15.848542070388795
30
0
0
LINE
5
197
100
AcDbEntity
8
0
100
AcDbLine
10
-137.93125000000001
20
-15.848542070388795
30
0
11
-137.69312661488848
21
-15.875000000000002
31
0
0
SPLINE
5
198
100
AcDbEntity
8
0
100
AcDbSpline
70
1064
71
3
72
8
73
4
74
0
42
0.000000001
43
0.0000000001
44
0.0000000001
40
0
40
0
40
0
40
0
40
1
40
1
40
1
40
1
10
-137.69312661488851
20
-15.875000000000002
30
0
10
-137.82541828155516
20
-15.954374798138939
30
0
10
-138.09000161488851
20
-16.11312540372213
30
0
10
-138.22229328155518
20
-16.192500201861066
30
0
0
SPLINE
5
199
100
AcDbEntity
8
0
100
AcDbSpline
70
1064
71
3
72
8
73
4
74
0
42
0.000000001
43
0.0000000001
44
0.0000000001
40
0
40
0
40
0
40
0
40
1
40
1
40
1
40
1
10
-138.35458494822183
20
-16.298332929611206
30
0
10
-138.328125
20
-16.271875000000001
30
0
10
-138.24874919255575
20
-16.21895813147227
30
0
10
-138.22229328155518
20
-16.192500201861066
30
0
0
SPLINE
5
200
100
AcDbEntity
8
0
100
AcDbSpline
70
1064
71
3
72
8
73
4
74
0
42
0.000000001
43
0.0000000001
44
0.0000000001
40
0
40
0
40
0
40
0
40
1
40
1
40
1
40
1
10
-138.22229328155518
20
-16.192500201861066
30
0
10
-138.24874919255575
20
-16.21895813147227
30
0
10
-138.328125
20
-16.271875000000001
30
0
10
-138.35458494822183
20
-16.298332929611206
30
0
0
LINE
5
201
100
AcDbEntity
8
0
100
AcDbLine
10
-13.153756459554025
20
-56.753125000000004
30
0
11
-12.836253229777006
21
-56.832500807444255
31
0
0
SPLINE
5
202
100
AcDbEntity
8
0
100
AcDbSpline
70
1064
71
3
72
8
73
4
74
0
42
0.000000001
43
0.0000000001
44
0.0000000001
40
0
40
0
40
0
40
0
40
1
40
1
40
1
40
1
10
-12.836253229776986
20
-56.832500807444262
30
0
10
-12.598121770222974
20
-58.472916666666677
30
0
10
-12.412910207112589
20
-60.113332525889085
30
0
10
-12.412910207112589
20
-61.7537483851115
30
0
0
LINE
5
203
100
AcDbEntity
8
0
100
AcDbLine
10
-12.41291020711259
20
-61.7537483851115
30
0
11
-12.730413436889608
21
-61.727292474110925
31
0
0
SPLINE
5
204
100
AcDbEntity
8
0
100
AcDbSpline
70
1064
71
3
72
8
73
4
74
0
42
0.000000001
43
0.0000000001
44
0.0000000001
40
0
40
0
40
0
40
0
40
1
40
1
40
1
40
1
10
-12.730413436889627
20
-61.727292474110925
30
0
10
-12.756881459553995
20
-60.060416666666676
30
0
10
-13.153756459554025
20
-58.420000807444261
30
0
10
-13.153756459554025
20
-56.753125000000004
30
0
0
LINE
5
205
100
AcDbEntity
8
0
100
AcDbLine
10
-12.624589792887342
20
-62.044791666666669
30
0
11
-12.307086563110323
21
-62.097707525889085
31
0
0
SPLINE
5
206
100
AcDbEntity
8
0
100
AcDbSpline
70
1064
71
3
72
8
73
4
74
0
42
0.000000001
43
0.0000000001
44
0.0000000001
40
0
40
0
40
0
40
0
40
1
40
1
40
1
40
1
10
-12.307086563110339
20
-62.097707525889092
30
0
10
-12.254166666666642
20
-64.134998385111501
30
0
10
-12.042503229776997
20
-66.198749192555766
30
0
10
-12.201246770222944
20
-68.262500000000003
30
0
0
LINE
5
207
100
AcDbEntity
8
0
100
AcDbLine
10
-12.201246770222944
20
-68.262500000000003
30
0
11
-12.492298126220668
21
-68.288959948221844
31
0
0
SPLINE
5
208
100
AcDbEntity
8
0
100
AcDbSpline
70
1064
71
3
72
8
73
4
74
0
42
0.000000001
43
0.0000000001
44
0.0000000001
40
0
40
0
40
0
40
0
40
1
40
1
40
1
40
1
10
-12.492298126220689
20
-68.288959948221859
30
0
10
-12.571669896443645
20
-66.198749192555766
30
0
10
-12.465830103556286
20
-64.134998385111501
30
0
10
-12.624589792887342
20
-62.044791666666669
30
0
0
ENDSEC
0
SECTION
2
OBJECTS
0
DICTIONARY
5
C
100
AcDbDictionary
3
ACAD_GROUP
350
D
3
ACAD_MLINESTYLE
350
17
0
DICTIONARY
5
D
100
AcDbDictionary
0
DICTIONARY
5
1A
330
C
100
AcDbDictionary
0
DICTIONARY
5
17
100
AcDbDictionary
0
ENDSEC
0
EOF
