999
FreeCAD v0.19 24267 +99 (Git)
  0
SECTION
  2
HEADER
  9
$ACADVER
  1
AC1014
  9
$ACADMAINTVER
 70
     9
  9
$DWGCODEPAGE
  3
ANSI_1252
  9
$TEXTSTYLE
  7
STANDARD
  9
$DIMSTYLE
  2
STANDARD
  9
$DIMTXSTY
  7
STANDARD
  9
$CMLSTYLE
  2
STANDARD
  9
$PEXTMAX
 10
50
 20
50
 30
50
  9
$PEXTMIN
 10
0
 20
0
 30
0
  9
$HANDSEED
  5
FFFF
  0
ENDSEC
  0
SECTION
  2
CLASSES
  0
CLASS
  1
ACDBDICTIONARYWDFLT
  2
AcDbDictionaryWithDefault
  3
ObjectDBX Classes
 90
        0
280
     0
281
     0
  0
CLASS
  1
XRECORD
  2
AcDbXrecord
  3
ObjectDBX Classes
 90
        0
280
     0
281
     0
  0
CLASS
  1
LWPOLYLINE
  2
AcDbPolyline
  3
ObjectDBX Classes
 90
        0
280
     0
281
     1
  0
ENDSEC
  0
SECTION
  2
TABLES
  0
TABLE
  2
VPORT
  5
20
330
0
100
AcDbSymbolTable
 70
     1
  0
VPORT
  5
21
330
20
100
AcDbSymbolTableRecord
100
AcDbViewportTableRecord
  2
*ACTIVE
 70
     0
  0
ENDTAB
  0
TABLE
  2
LTYPE
  5
22
330
0
100
AcDbSymbolTable
 70
     1
  0
LTYPE
  5
23
330
21
100
AcDbSymbolTableRecord
100
AcDbLinetypeTableRecord
  2
BYBLOCK
 70
     0
  3

 72
    65
 73
     0
 40
0.0
  0
LTYPE
  5
24
330
21
100
AcDbSymbolTableRecord
100
AcDbLinetypeTableRecord
  2
BYLAYER
 70
     0
  3

 72
    65
 73
     0
 40
0.0
  0
LTYPE
  5
25
330
21
100
AcDbSymbolTableRecord
100
AcDbLinetypeTableRecord
  2
CONTINUOUS
 70
     0
  3
Solid line
 72
    65
 73
     0
 40
0.0
  0
ENDTAB
  0
TABLE
  2
LAYER
  5
AFD
330
0
100
AcDbSymbolTable
 70
7
  0
LAYER
  5
AFE
330
AFD
100
AcDbSymbolTableRecord
100
AcDbLayerTableRecord
  2
0
 70
   0
 62
   7
  6
CONTINUOUS
  0
LAYER
  5
AFF
330
AFD
100
AcDbSymbolTableRecord
100
AcDbLayerTableRecord
  2
none
 70
    0
 62
    7
  6
CONTINUOUS
  0
LAYER
  5
B00
330
AFD
100
AcDbSymbolTableRecord
100
AcDbLayerTableRecord
  2
Shape2DView
 70
    0
 62
    7
  6
CONTINUOUS
  0
LAYER
  5
B01
330
AFD
100
AcDbSymbolTableRecord
100
AcDbLayerTableRecord
  2
Shape2DView001
 70
    0
 62
    7
  6
CONTINUOUS
  0
LAYER
  5
B02
330
AFD
100
AcDbSymbolTableRecord
100
AcDbLayerTableRecord
  2
Shape2DView002
 70
    0
 62
    7
  6
CONTINUOUS
  0
LAYER
  5
B03
330
AFD
100
AcDbSymbolTableRecord
100
AcDbLayerTableRecord
  2
Shape2DView003
 70
    0
 62
    7
  6
CONTINUOUS
  0
LAYER
  5
B04
330
AFD
100
AcDbSymbolTableRecord
100
AcDbLayerTableRecord
  2
Shape2DView004
 70
    0
 62
    7
  6
CONTINUOUS
  0
ENDTAB
  0
TABLE
  2
STYLE
  5
70
330
0
100
AcDbSymbolTable
 70
     2
  0
STYLE
  5
71
330
70
100
AcDbSymbolTableRecord
100
AcDbTextStyleTableRecord
  2
STANDARD
 70
     0
 40
0.0
 41
1.0
 50
0.0
 71
     0
 42
2.5
  3
arial.ttf
  4

  0
STYLE
  5
72
330
70
100
AcDbSymbolTableRecord
100
AcDbTextStyleTableRecord
  2
ANNOTATIVE
 70
     0
 40
0.0
 41
1.0
 50
0.0
 71
     0
 42
2.5
  3
arial.ttf
  4

  0
ENDTAB
  0
TABLE
  2
VIEW
  5
73
330
0
100
AcDbSymbolTable
 70
     0
  0
ENDTAB
  0
TABLE
  2
UCS
  5
74
330
0
100
AcDbSymbolTable
 70
     0
  0
ENDTAB
  0
TABLE
  2
APPID
  5
75
330
0
100
AcDbSymbolTable
 70
     2
  0
APPID
  5
76
330
75
100
AcDbSymbolTableRecord
100
AcDbRegAppTableRecord
  2
ACAD
 70
     0
  0
APPID
  5
77
330
75
100
AcDbSymbolTableRecord
100
AcDbRegAppTableRecord
  2
ACADANNOTATIVE
 70
     0
  0
ENDTAB
  0
TABLE
  2
DIMSTYLE
  5
78
330
0
100
AcDbSymbolTable
 70
     2
  0
DIMSTYLE
105
79
330
78
100
AcDbSymbolTableRecord
100
AcDbDimStyleTableRecord
  2
STANDARD
 70
     0
  3

  4

  5

  6

  7

 40
0.0
 41
2.5
 42
0.625
 43
3.75
 44
1.25
 45
0.0
 46
0.0
 47
0.0
 48
0.0
140
2.5
141
2.5
142
0.0
143
0.03937007874016
144
1.0
145
0.0
146
1.0
147
0.625
 71
     0
 72
     0
 73
     0
 74
     0
 75
     0
 76
     0
 77
     1
 78
     8
170
     0
171
     3
172
     1
173
     0
174
     0
175
     0
176
     0
177
     0
178
     0
270
     2
271
     2
272
     2
273
     2
274
     3
340
71
275
     0
280
     0
281
     0
282
     0
283
     0
284
     8
285
     0
286
     0
287
     3
288
     0
  0
ENDTAB
  0
TABLE
  2
BLOCK_RECORD
  5
A01
330
0
100
AcDbSymbolTable
  70
5
  0
BLOCK_RECORD
  5
A02
330
A01
100
AcDbSymbolTableRecord
100
AcDbBlockTableRecord
  2
*MODEL_SPACE
  0
BLOCK_RECORD
  5
A03
330
A01
100
AcDbSymbolTableRecord
100
AcDbBlockTableRecord
  2
*PAPER_SPACE
  0
ENDTAB
  0
ENDSEC
  0
SECTION
  2
BLOCKS
  0
BLOCK
  5
A04
330
A02
100
AcDbEntity
  8
0
100
AcDbBlockBegin
  2
*MODEL_SPACE
 70
   0
 10
0
 20
0
 30
0
  3
*MODEL_SPACE
  1
 
  0
ENDBLK
  5
A05
330
A02
100
AcDbEntity
  8
0
100
AcDbBlockEnd
  0
BLOCK
  5
A06
330
A03
100
AcDbEntity
 67
1
  8
0
100
AcDbBlockBegin
  2
*PAPER_SPACE
 70
   0
 10
0
 20
0
 30
0
  3
*PAPER_SPACE
  1
 
  0
ENDBLK
  5
A07
330
A03
100
AcDbEntity
 67
    1
  8
0
100
AcDbBlockEnd
  0
ENDSEC
  0
SECTION
  2
ENTITIES
  0
LINE
  5
A08
330
A02
100
AcDbEntity
  8
Shape2DView
100
AcDbLine
 10
0
 20
329
 30
0
 11
0
 21
353.133
 31
0
  0
LINE
  5
A09
330
A02
100
AcDbEntity
  8
Shape2DView
100
AcDbLine
 10
4.06665
 20
353.133
 30
0
 11
0
 21
353.133
 31
0
  0
LINE
  5
A0A
330
A02
100
AcDbEntity
  8
Shape2DView
100
AcDbLine
 10
4.06665
 20
353.133
 30
0
 11
4.06665
 21
372.867
 31
0
  0
LINE
  5
A0B
330
A02
100
AcDbEntity
  8
Shape2DView
100
AcDbLine
 10
4.06665
 20
372.867
 30
0
 11
0
 21
372.867
 31
0
  0
LINE
  5
A0C
330
A02
100
AcDbEntity
  8
Shape2DView
100
AcDbLine
 10
0
 20
372.867
 30
0
 11
0
 21
413.133
 31
0
  0
LINE
  5
A0D
330
A02
100
AcDbEntity
  8
Shape2DView
100
AcDbLine
 10
4.06665
 20
413.133
 30
0
 11
0
 21
413.133
 31
0
  0
LINE
  5
A0E
330
A02
100
AcDbEntity
  8
Shape2DView
100
AcDbLine
 10
4.06665
 20
413.133
 30
0
 11
4.06665
 21
432.867
 31
0
  0
LINE
  5
A0F
330
A02
100
AcDbEntity
  8
Shape2DView
100
AcDbLine
 10
4.06665
 20
432.867
 30
0
 11
0
 21
432.867
 31
0
  0
LINE
  5
A10
330
A02
100
AcDbEntity
  8
Shape2DView
100
AcDbLine
 10
0
 20
432.867
 30
0
 11
0
 21
457
 31
0
  0
LINE
  5
A11
330
A02
100
AcDbEntity
  8
Shape2DView
100
AcDbLine
 10
0
 20
457
 30
0
 11
25.6334
 21
457
 31
0
  0
LINE
  5
A12
330
A02
100
AcDbEntity
  8
Shape2DView
100
AcDbLine
 10
25.6334
 20
457
 30
0
 11
25.6334
 21
452.933
 31
0
  0
LINE
  5
A13
330
A02
100
AcDbEntity
  8
Shape2DView
100
AcDbLine
 10
45.3666
 20
452.933
 30
0
 11
25.6334
 21
452.933
 31
0
  0
LINE
  5
A14
330
A02
100
AcDbEntity
  8
Shape2DView
100
AcDbLine
 10
45.3666
 20
457
 30
0
 11
45.3666
 21
452.933
 31
0
  0
LINE
  5
A15
330
A02
100
AcDbEntity
  8
Shape2DView
100
AcDbLine
 10
45.3666
 20
457
 30
0
 11
96.6334
 21
457
 31
0
  0
LINE
  5
A16
330
A02
100
AcDbEntity
  8
Shape2DView
100
AcDbLine
 10
96.6334
 20
457
 30
0
 11
96.6334
 21
452.933
 31
0
  0
LINE
  5
A17
330
A02
100
AcDbEntity
  8
Shape2DView
100
AcDbLine
 10
116.367
 20
452.933
 30
0
 11
96.6333
 21
452.933
 31
0
  0
LINE
  5
A18
330
A02
100
AcDbEntity
  8
Shape2DView
100
AcDbLine
 10
116.367
 20
457
 30
0
 11
116.367
 21
452.933
 31
0
  0
LINE
  5
A19
330
A02
100
AcDbEntity
  8
Shape2DView
100
AcDbLine
 10
116.367
 20
457
 30
0
 11
167.633
 21
457
 31
0
  0
LINE
  5
A1A
330
A02
100
AcDbEntity
  8
Shape2DView
100
AcDbLine
 10
167.633
 20
457
 30
0
 11
167.633
 21
452.933
 31
0
  0
LINE
  5
A1B
330
A02
100
AcDbEntity
  8
Shape2DView
100
AcDbLine
 10
187.367
 20
452.933
 30
0
 11
167.633
 21
452.933
 31
0
  0
LINE
  5
A1C
330
A02
100
AcDbEntity
  8
Shape2DView
100
AcDbLine
 10
187.367
 20
457
 30
0
 11
187.367
 21
452.933
 31
0
  0
LINE
  5
A1D
330
A02
100
AcDbEntity
  8
Shape2DView
100
AcDbLine
 10
187.367
 20
457
 30
0
 11
238.633
 21
457
 31
0
  0
LINE
  5
A1E
330
A02
100
AcDbEntity
  8
Shape2DView
100
AcDbLine
 10
238.633
 20
457
 30
0
 11
238.633
 21
452.933
 31
0
  0
LINE
  5
A1F
330
A02
100
AcDbEntity
  8
Shape2DView
100
AcDbLine
 10
258.367
 20
452.933
 30
0
 11
238.633
 21
452.933
 31
0
  0
LINE
  5
A20
330
A02
100
AcDbEntity
  8
Shape2DView
100
AcDbLine
 10
258.367
 20
457
 30
0
 11
258.367
 21
452.933
 31
0
  0
LINE
  5
A21
330
A02
100
AcDbEntity
  8
Shape2DView
100
AcDbLine
 10
258.367
 20
457
 30
0
 11
309.633
 21
457
 31
0
  0
LINE
  5
A22
330
A02
100
AcDbEntity
  8
Shape2DView
100
AcDbLine
 10
309.633
 20
457
 30
0
 11
309.633
 21
452.933
 31
0
  0
LINE
  5
A23
330
A02
100
AcDbEntity
  8
Shape2DView
100
AcDbLine
 10
329.367
 20
452.933
 30
0
 11
309.633
 21
452.933
 31
0
  0
LINE
  5
A24
330
A02
100
AcDbEntity
  8
Shape2DView
100
AcDbLine
 10
329.367
 20
457
 30
0
 11
329.367
 21
452.933
 31
0
  0
LINE
  5
A25
330
A02
100
AcDbEntity
  8
Shape2DView
100
AcDbLine
 10
329.367
 20
457
 30
0
 11
355
 21
457
 31
0
  0
LINE
  5
A26
330
A02
100
AcDbEntity
  8
Shape2DView
100
AcDbLine
 10
355
 20
432.867
 30
0
 11
355
 21
457
 31
0
  0
LINE
  5
A27
330
A02
100
AcDbEntity
  8
Shape2DView
100
AcDbLine
 10
355
 20
432.867
 30
0
 11
350.933
 21
432.867
 31
0
  0
LINE
  5
A28
330
A02
100
AcDbEntity
  8
Shape2DView
100
AcDbLine
 10
350.933
 20
413.133
 30
0
 11
350.933
 21
432.867
 31
0
  0
LINE
  5
A29
330
A02
100
AcDbEntity
  8
Shape2DView
100
AcDbLine
 10
355
 20
413.133
 30
0
 11
350.933
 21
413.133
 31
0
  0
LINE
  5
A2A
330
A02
100
AcDbEntity
  8
Shape2DView
100
AcDbLine
 10
355
 20
372.867
 30
0
 11
355
 21
413.133
 31
0
  0
LINE
  5
A2B
330
A02
100
AcDbEntity
  8
Shape2DView
100
AcDbLine
 10
355
 20
372.867
 30
0
 11
350.933
 21
372.867
 31
0
  0
LINE
  5
A2C
330
A02
100
AcDbEntity
  8
Shape2DView
100
AcDbLine
 10
350.933
 20
353.133
 30
0
 11
350.933
 21
372.867
 31
0
  0
LINE
  5
A2D
330
A02
100
AcDbEntity
  8
Shape2DView
100
AcDbLine
 10
355
 20
353.133
 30
0
 11
350.933
 21
353.133
 31
0
  0
LINE
  5
A2E
330
A02
100
AcDbEntity
  8
Shape2DView
100
AcDbLine
 10
355
 20
329
 30
0
 11
355
 21
353.133
 31
0
  0
LINE
  5
A2F
330
A02
100
AcDbEntity
  8
Shape2DView
100
AcDbLine
 10
329.367
 20
329
 30
0
 11
355
 21
329
 31
0
  0
LINE
  5
A30
330
A02
100
AcDbEntity
  8
Shape2DView
100
AcDbLine
 10
329.367
 20
333.067
 30
0
 11
329.367
 21
329
 31
0
  0
LINE
  5
A31
330
A02
100
AcDbEntity
  8
Shape2DView
100
AcDbLine
 10
329.367
 20
333.067
 30
0
 11
309.633
 21
333.067
 31
0
  0
LINE
  5
A32
330
A02
100
AcDbEntity
  8
Shape2DView
100
AcDbLine
 10
309.633
 20
333.067
 30
0
 11
309.633
 21
329
 31
0
  0
LINE
  5
A33
330
A02
100
AcDbEntity
  8
Shape2DView
100
AcDbLine
 10
258.367
 20
329
 30
0
 11
309.633
 21
329
 31
0
  0
LINE
  5
A34
330
A02
100
AcDbEntity
  8
Shape2DView
100
AcDbLine
 10
258.367
 20
333.067
 30
0
 11
258.367
 21
329
 31
0
  0
LINE
  5
A35
330
A02
100
AcDbEntity
  8
Shape2DView
100
AcDbLine
 10
258.367
 20
333.067
 30
0
 11
238.633
 21
333.067
 31
0
  0
LINE
  5
A36
330
A02
100
AcDbEntity
  8
Shape2DView
100
AcDbLine
 10
238.633
 20
333.067
 30
0
 11
238.633
 21
329
 31
0
  0
LINE
  5
A37
330
A02
100
AcDbEntity
  8
Shape2DView
100
AcDbLine
 10
187.367
 20
329
 30
0
 11
238.633
 21
329
 31
0
  0
LINE
  5
A38
330
A02
100
AcDbEntity
  8
Shape2DView
100
AcDbLine
 10
187.367
 20
333.067
 30
0
 11
187.367
 21
329
 31
0
  0
LINE
  5
A39
330
A02
100
AcDbEntity
  8
Shape2DView
100
AcDbLine
 10
187.367
 20
333.067
 30
0
 11
167.633
 21
333.067
 31
0
  0
LINE
  5
A3A
330
A02
100
AcDbEntity
  8
Shape2DView
100
AcDbLine
 10
167.633
 20
333.067
 30
0
 11
167.633
 21
329
 31
0
  0
LINE
  5
A3B
330
A02
100
AcDbEntity
  8
Shape2DView
100
AcDbLine
 10
116.367
 20
329
 30
0
 11
167.633
 21
329
 31
0
  0
LINE
  5
A3C
330
A02
100
AcDbEntity
  8
Shape2DView
100
AcDbLine
 10
116.367
 20
333.067
 30
0
 11
116.367
 21
329
 31
0
  0
LINE
  5
A3D
330
A02
100
AcDbEntity
  8
Shape2DView
100
AcDbLine
 10
116.367
 20
333.067
 30
0
 11
96.6333
 21
333.067
 31
0
  0
LINE
  5
A3E
330
A02
100
AcDbEntity
  8
Shape2DView
100
AcDbLine
 10
96.6334
 20
333.067
 30
0
 11
96.6334
 21
329
 31
0
  0
LINE
  5
A3F
330
A02
100
AcDbEntity
  8
Shape2DView
100
AcDbLine
 10
45.3666
 20
329
 30
0
 11
96.6334
 21
329
 31
0
  0
LINE
  5
A40
330
A02
100
AcDbEntity
  8
Shape2DView
100
AcDbLine
 10
45.3666
 20
333.067
 30
0
 11
45.3666
 21
329
 31
0
  0
LINE
  5
A41
330
A02
100
AcDbEntity
  8
Shape2DView
100
AcDbLine
 10
45.3666
 20
333.067
 30
0
 11
25.6334
 21
333.067
 31
0
  0
LINE
  5
A42
330
A02
100
AcDbEntity
  8
Shape2DView
100
AcDbLine
 10
25.6334
 20
333.067
 30
0
 11
25.6334
 21
329
 31
0
  0
LINE
  5
A43
330
A02
100
AcDbEntity
  8
Shape2DView
100
AcDbLine
 10
0
 20
329
 30
0
 11
25.6334
 21
329
 31
0
  0
LINE
  5
A44
330
A02
100
AcDbEntity
  8
Shape2DView001
100
AcDbLine
 10
1
 20
8.9e-16
 30
0
 11
1
 21
15.1334
 31
0
  0
LINE
  5
A45
330
A02
100
AcDbEntity
  8
Shape2DView001
100
AcDbLine
 10
1
 20
15.1333
 30
0
 11
5.06665
 21
15.1333
 31
0
  0
LINE
  5
A46
330
A02
100
AcDbEntity
  8
Shape2DView001
100
AcDbLine
 10
1
 20
8.9e-16
 30
0
 11
356
 21
8.9e-16
 31
0
  0
LINE
  5
A47
330
A02
100
AcDbEntity
  8
Shape2DView001
100
AcDbLine
 10
356
 20
8.9e-16
 30
0
 11
356
 21
15.1334
 31
0
  0
LINE
  5
A48
330
A02
100
AcDbEntity
  8
Shape2DView001
100
AcDbLine
 10
351.933
 20
15.1333
 30
0
 11
356
 21
15.1333
 31
0
  0
LINE
  5
A49
330
A02
100
AcDbEntity
  8
Shape2DView001
100
AcDbLine
 10
351.933
 20
34.8666
 30
0
 11
351.933
 21
15.1334
 31
0
  0
LINE
  5
A4A
330
A02
100
AcDbEntity
  8
Shape2DView001
100
AcDbLine
 10
351.933
 20
34.8666
 30
0
 11
356
 21
34.8666
 31
0
  0
LINE
  5
A4B
330
A02
100
AcDbEntity
  8
Shape2DView001
100
AcDbLine
 10
356
 20
34.8666
 30
0
 11
356
 21
65.1334
 31
0
  0
LINE
  5
A4C
330
A02
100
AcDbEntity
  8
Shape2DView001
100
AcDbLine
 10
351.933
 20
65.1334
 30
0
 11
356
 21
65.1334
 31
0
  0
LINE
  5
A4D
330
A02
100
AcDbEntity
  8
Shape2DView001
100
AcDbLine
 10
351.933
 20
84.8667
 30
0
 11
351.933
 21
65.1334
 31
0
  0
LINE
  5
A4E
330
A02
100
AcDbEntity
  8
Shape2DView001
100
AcDbLine
 10
351.933
 20
84.8667
 30
0
 11
356
 21
84.8667
 31
0
  0
LINE
  5
A4F
330
A02
100
AcDbEntity
  8
Shape2DView001
100
AcDbLine
 10
356
 20
84.8666
 30
0
 11
356
 21
115.133
 31
0
  0
LINE
  5
A50
330
A02
100
AcDbEntity
  8
Shape2DView001
100
AcDbLine
 10
351.933
 20
115.133
 30
0
 11
356
 21
115.133
 31
0
  0
LINE
  5
A51
330
A02
100
AcDbEntity
  8
Shape2DView001
100
AcDbLine
 10
351.933
 20
134.867
 30
0
 11
351.933
 21
115.133
 31
0
  0
LINE
  5
A52
330
A02
100
AcDbEntity
  8
Shape2DView001
100
AcDbLine
 10
351.933
 20
134.867
 30
0
 11
356
 21
134.867
 31
0
  0
LINE
  5
A53
330
A02
100
AcDbEntity
  8
Shape2DView001
100
AcDbLine
 10
356
 20
134.867
 30
0
 11
356
 21
150
 31
0
  0
LINE
  5
A54
330
A02
100
AcDbEntity
  8
Shape2DView001
100
AcDbLine
 10
330.633
 20
150
 30
0
 11
356
 21
150
 31
0
  0
LINE
  5
A55
330
A02
100
AcDbEntity
  8
Shape2DView001
100
AcDbLine
 10
5.06665
 20
34.8666
 30
0
 11
5.06665
 21
15.1334
 31
0
  0
LINE
  5
A56
330
A02
100
AcDbEntity
  8
Shape2DView001
100
AcDbLine
 10
1
 20
150
 30
0
 11
26.3666
 21
150
 31
0
  0
LINE
  5
A57
330
A02
100
AcDbEntity
  8
Shape2DView001
100
AcDbLine
 10
1
 20
134.867
 30
0
 11
1
 21
150
 31
0
  0
LINE
  5
A58
330
A02
100
AcDbEntity
  8
Shape2DView001
100
AcDbLine
 10
1
 20
134.867
 30
0
 11
5.06665
 21
134.867
 31
0
  0
LINE
  5
A59
330
A02
100
AcDbEntity
  8
Shape2DView001
100
AcDbLine
 10
5.06665
 20
134.867
 30
0
 11
5.06665
 21
115.133
 31
0
  0
LINE
  5
A5A
330
A02
100
AcDbEntity
  8
Shape2DView001
100
AcDbLine
 10
1
 20
115.133
 30
0
 11
5.06665
 21
115.133
 31
0
  0
LINE
  5
A5B
330
A02
100
AcDbEntity
  8
Shape2DView001
100
AcDbLine
 10
1
 20
84.8666
 30
0
 11
1
 21
115.133
 31
0
  0
LINE
  5
A5C
330
A02
100
AcDbEntity
  8
Shape2DView001
100
AcDbLine
 10
1
 20
84.8667
 30
0
 11
5.06665
 21
84.8667
 31
0
  0
LINE
  5
A5D
330
A02
100
AcDbEntity
  8
Shape2DView001
100
AcDbLine
 10
5.06665
 20
84.8667
 30
0
 11
5.06665
 21
65.1334
 31
0
  0
LINE
  5
A5E
330
A02
100
AcDbEntity
  8
Shape2DView001
100
AcDbLine
 10
1
 20
65.1334
 30
0
 11
5.06665
 21
65.1334
 31
0
  0
LINE
  5
A5F
330
A02
100
AcDbEntity
  8
Shape2DView001
100
AcDbLine
 10
1
 20
34.8666
 30
0
 11
1
 21
65.1334
 31
0
  0
LINE
  5
A60
330
A02
100
AcDbEntity
  8
Shape2DView001
100
AcDbLine
 10
1
 20
34.8666
 30
0
 11
5.06665
 21
34.8666
 31
0
  0
LINE
  5
A61
330
A02
100
AcDbEntity
  8
Shape2DView001
100
AcDbLine
 10
330.633
 20
150
 30
0
 11
330.633
 21
154
 31
0
  0
LINE
  5
A62
330
A02
100
AcDbEntity
  8
Shape2DView001
100
AcDbLine
 10
330.633
 20
154
 30
0
 11
310.367
 21
154
 31
0
  0
LINE
  5
A63
330
A02
100
AcDbEntity
  8
Shape2DView001
100
AcDbLine
 10
259.633
 20
150
 30
0
 11
310.367
 21
150
 31
0
  0
LINE
  5
A64
330
A02
100
AcDbEntity
  8
Shape2DView001
100
AcDbLine
 10
310.367
 20
150
 30
0
 11
310.367
 21
154
 31
0
  0
LINE
  5
A65
330
A02
100
AcDbEntity
  8
Shape2DView001
100
AcDbLine
 10
259.633
 20
150
 30
0
 11
259.633
 21
154
 31
0
  0
LINE
  5
A66
330
A02
100
AcDbEntity
  8
Shape2DView001
100
AcDbLine
 10
259.633
 20
154
 30
0
 11
239.367
 21
154
 31
0
  0
LINE
  5
A67
330
A02
100
AcDbEntity
  8
Shape2DView001
100
AcDbLine
 10
188.633
 20
150
 30
0
 11
239.367
 21
150
 31
0
  0
LINE
  5
A68
330
A02
100
AcDbEntity
  8
Shape2DView001
100
AcDbLine
 10
239.367
 20
150
 30
0
 11
239.367
 21
154
 31
0
  0
LINE
  5
A69
330
A02
100
AcDbEntity
  8
Shape2DView001
100
AcDbLine
 10
188.633
 20
150
 30
0
 11
188.633
 21
154
 31
0
  0
LINE
  5
A6A
330
A02
100
AcDbEntity
  8
Shape2DView001
100
AcDbLine
 10
188.633
 20
154
 30
0
 11
168.367
 21
154
 31
0
  0
LINE
  5
A6B
330
A02
100
AcDbEntity
  8
Shape2DView001
100
AcDbLine
 10
117.633
 20
150
 30
0
 11
168.367
 21
150
 31
0
  0
LINE
  5
A6C
330
A02
100
AcDbEntity
  8
Shape2DView001
100
AcDbLine
 10
168.367
 20
150
 30
0
 11
168.367
 21
154
 31
0
  0
LINE
  5
A6D
330
A02
100
AcDbEntity
  8
Shape2DView001
100
AcDbLine
 10
117.633
 20
150
 30
0
 11
117.633
 21
154
 31
0
  0
LINE
  5
A6E
330
A02
100
AcDbEntity
  8
Shape2DView001
100
AcDbLine
 10
117.633
 20
154
 30
0
 11
97.3667
 21
154
 31
0
  0
LINE
  5
A6F
330
A02
100
AcDbEntity
  8
Shape2DView001
100
AcDbLine
 10
46.6334
 20
150
 30
0
 11
97.3666
 21
150
 31
0
  0
LINE
  5
A70
330
A02
100
AcDbEntity
  8
Shape2DView001
100
AcDbLine
 10
97.3667
 20
150
 30
0
 11
97.3667
 21
154
 31
0
  0
LINE
  5
A71
330
A02
100
AcDbEntity
  8
Shape2DView001
100
AcDbLine
 10
46.6334
 20
150
 30
0
 11
46.6334
 21
154
 31
0
  0
LINE
  5
A72
330
A02
100
AcDbEntity
  8
Shape2DView001
100
AcDbLine
 10
26.3666
 20
150
 30
0
 11
26.3666
 21
154
 31
0
  0
LINE
  5
A73
330
A02
100
AcDbEntity
  8
Shape2DView001
100
AcDbLine
 10
46.6334
 20
154
 30
0
 11
26.3666
 21
154
 31
0
  0
CIRCLE
  5
A74
330
A02
100
AcDbEntity
  8
Shape2DView001
100
AcDbCircle
 10
276
 20
9
 40
1.6
  0
CIRCLE
  5
A75
330
A02
100
AcDbEntity
  8
Shape2DView001
100
AcDbCircle
 10
81
 20
9
 40
1.6
  0
CIRCLE
  5
A76
330
A02
100
AcDbEntity
  8
Shape2DView001
100
AcDbCircle
 10
178.5
 20
9
 40
1.6
  0
LINE
  5
A77
330
A02
100
AcDbEntity
  8
Shape2DView002
100
AcDbLine
 10
0
 20
164
 30
0
 11
0
 21
179.133
 31
0
  0
LINE
  5
A78
330
A02
100
AcDbEntity
  8
Shape2DView002
100
AcDbLine
 10
4.06665
 20
179.133
 30
0
 11
8.88178e-16
 21
179.133
 31
0
  0
LINE
  5
A79
330
A02
100
AcDbEntity
  8
Shape2DView002
100
AcDbLine
 10
0
 20
164
 30
0
 11
355
 21
164
 31
0
  0
LINE
  5
A7A
330
A02
100
AcDbEntity
  8
Shape2DView002
100
AcDbLine
 10
355
 20
164
 30
0
 11
355
 21
179.133
 31
0
  0
LINE
  5
A7B
330
A02
100
AcDbEntity
  8
Shape2DView002
100
AcDbLine
 10
355
 20
179.133
 30
0
 11
350.933
 21
179.133
 31
0
  0
LINE
  5
A7C
330
A02
100
AcDbEntity
  8
Shape2DView002
100
AcDbLine
 10
350.933
 20
198.867
 30
0
 11
350.933
 21
179.133
 31
0
  0
LINE
  5
A7D
330
A02
100
AcDbEntity
  8
Shape2DView002
100
AcDbLine
 10
355
 20
198.867
 30
0
 11
350.933
 21
198.867
 31
0
  0
LINE
  5
A7E
330
A02
100
AcDbEntity
  8
Shape2DView002
100
AcDbLine
 10
355
 20
198.867
 30
0
 11
355
 21
229.133
 31
0
  0
LINE
  5
A7F
330
A02
100
AcDbEntity
  8
Shape2DView002
100
AcDbLine
 10
355
 20
229.133
 30
0
 11
350.933
 21
229.133
 31
0
  0
LINE
  5
A80
330
A02
100
AcDbEntity
  8
Shape2DView002
100
AcDbLine
 10
350.933
 20
248.867
 30
0
 11
350.933
 21
229.133
 31
0
  0
LINE
  5
A81
330
A02
100
AcDbEntity
  8
Shape2DView002
100
AcDbLine
 10
355
 20
248.867
 30
0
 11
350.933
 21
248.867
 31
0
  0
LINE
  5
A82
330
A02
100
AcDbEntity
  8
Shape2DView002
100
AcDbLine
 10
355
 20
248.867
 30
0
 11
355
 21
279.133
 31
0
  0
LINE
  5
A83
330
A02
100
AcDbEntity
  8
Shape2DView002
100
AcDbLine
 10
355
 20
279.133
 30
0
 11
350.933
 21
279.133
 31
0
  0
LINE
  5
A84
330
A02
100
AcDbEntity
  8
Shape2DView002
100
AcDbLine
 10
350.933
 20
298.867
 30
0
 11
350.933
 21
279.133
 31
0
  0
LINE
  5
A85
330
A02
100
AcDbEntity
  8
Shape2DView002
100
AcDbLine
 10
355
 20
298.867
 30
0
 11
350.933
 21
298.867
 31
0
  0
LINE
  5
A86
330
A02
100
AcDbEntity
  8
Shape2DView002
100
AcDbLine
 10
355
 20
298.867
 30
0
 11
355
 21
314
 31
0
  0
LINE
  5
A87
330
A02
100
AcDbEntity
  8
Shape2DView002
100
AcDbLine
 10
329.633
 20
314
 30
0
 11
355
 21
314
 31
0
  0
LINE
  5
A88
330
A02
100
AcDbEntity
  8
Shape2DView002
100
AcDbLine
 10
4.06665
 20
198.867
 30
0
 11
4.06665
 21
179.133
 31
0
  0
LINE
  5
A89
330
A02
100
AcDbEntity
  8
Shape2DView002
100
AcDbLine
 10
0
 20
314
 30
0
 11
25.3666
 21
314
 31
0
  0
LINE
  5
A8A
330
A02
100
AcDbEntity
  8
Shape2DView002
100
AcDbLine
 10
0
 20
298.867
 30
0
 11
0
 21
314
 31
0
  0
LINE
  5
A8B
330
A02
100
AcDbEntity
  8
Shape2DView002
100
AcDbLine
 10
4.06665
 20
298.867
 30
0
 11
8.88178e-16
 21
298.867
 31
0
  0
LINE
  5
A8C
330
A02
100
AcDbEntity
  8
Shape2DView002
100
AcDbLine
 10
4.06665
 20
298.867
 30
0
 11
4.06665
 21
279.133
 31
0
  0
LINE
  5
A8D
330
A02
100
AcDbEntity
  8
Shape2DView002
100
AcDbLine
 10
4.06665
 20
279.133
 30
0
 11
8.88178e-16
 21
279.133
 31
0
  0
LINE
  5
A8E
330
A02
100
AcDbEntity
  8
Shape2DView002
100
AcDbLine
 10
0
 20
248.867
 30
0
 11
0
 21
279.133
 31
0
  0
LINE
  5
A8F
330
A02
100
AcDbEntity
  8
Shape2DView002
100
AcDbLine
 10
4.06665
 20
248.867
 30
0
 11
8.88178e-16
 21
248.867
 31
0
  0
LINE
  5
A90
330
A02
100
AcDbEntity
  8
Shape2DView002
100
AcDbLine
 10
4.06665
 20
248.867
 30
0
 11
4.06665
 21
229.133
 31
0
  0
LINE
  5
A91
330
A02
100
AcDbEntity
  8
Shape2DView002
100
AcDbLine
 10
4.06665
 20
229.133
 30
0
 11
8.88178e-16
 21
229.133
 31
0
  0
LINE
  5
A92
330
A02
100
AcDbEntity
  8
Shape2DView002
100
AcDbLine
 10
0
 20
198.867
 30
0
 11
0
 21
229.133
 31
0
  0
LINE
  5
A93
330
A02
100
AcDbEntity
  8
Shape2DView002
100
AcDbLine
 10
4.06665
 20
198.867
 30
0
 11
8.88178e-16
 21
198.867
 31
0
  0
LINE
  5
A94
330
A02
100
AcDbEntity
  8
Shape2DView002
100
AcDbLine
 10
329.633
 20
314
 30
0
 11
329.633
 21
318
 31
0
  0
LINE
  5
A95
330
A02
100
AcDbEntity
  8
Shape2DView002
100
AcDbLine
 10
329.633
 20
318
 30
0
 11
309.367
 21
318
 31
0
  0
LINE
  5
A96
330
A02
100
AcDbEntity
  8
Shape2DView002
100
AcDbLine
 10
258.633
 20
314
 30
0
 11
309.367
 21
314
 31
0
  0
LINE
  5
A97
330
A02
100
AcDbEntity
  8
Shape2DView002
100
AcDbLine
 10
309.367
 20
314
 30
0
 11
309.367
 21
318
 31
0
  0
LINE
  5
A98
330
A02
100
AcDbEntity
  8
Shape2DView002
100
AcDbLine
 10
258.633
 20
314
 30
0
 11
258.633
 21
318
 31
0
  0
LINE
  5
A99
330
A02
100
AcDbEntity
  8
Shape2DView002
100
AcDbLine
 10
258.633
 20
318
 30
0
 11
238.367
 21
318
 31
0
  0
LINE
  5
A9A
330
A02
100
AcDbEntity
  8
Shape2DView002
100
AcDbLine
 10
187.633
 20
314
 30
0
 11
238.367
 21
314
 31
0
  0
LINE
  5
A9B
330
A02
100
AcDbEntity
  8
Shape2DView002
100
AcDbLine
 10
238.367
 20
314
 30
0
 11
238.367
 21
318
 31
0
  0
LINE
  5
A9C
330
A02
100
AcDbEntity
  8
Shape2DView002
100
AcDbLine
 10
187.633
 20
314
 30
0
 11
187.633
 21
318
 31
0
  0
LINE
  5
A9D
330
A02
100
AcDbEntity
  8
Shape2DView002
100
AcDbLine
 10
187.633
 20
318
 30
0
 11
167.367
 21
318
 31
0
  0
LINE
  5
A9E
330
A02
100
AcDbEntity
  8
Shape2DView002
100
AcDbLine
 10
116.633
 20
314
 30
0
 11
167.367
 21
314
 31
0
  0
LINE
  5
A9F
330
A02
100
AcDbEntity
  8
Shape2DView002
100
AcDbLine
 10
167.367
 20
314
 30
0
 11
167.367
 21
318
 31
0
  0
LINE
  5
AA0
330
A02
100
AcDbEntity
  8
Shape2DView002
100
AcDbLine
 10
116.633
 20
314
 30
0
 11
116.633
 21
318
 31
0
  0
LINE
  5
AA1
330
A02
100
AcDbEntity
  8
Shape2DView002
100
AcDbLine
 10
116.633
 20
318
 30
0
 11
96.3667
 21
318
 31
0
  0
LINE
  5
AA2
330
A02
100
AcDbEntity
  8
Shape2DView002
100
AcDbLine
 10
45.6334
 20
314
 30
0
 11
96.3666
 21
314
 31
0
  0
LINE
  5
AA3
330
A02
100
AcDbEntity
  8
Shape2DView002
100
AcDbLine
 10
96.3667
 20
314
 30
0
 11
96.3667
 21
318
 31
0
  0
LINE
  5
AA4
330
A02
100
AcDbEntity
  8
Shape2DView002
100
AcDbLine
 10
45.6334
 20
314
 30
0
 11
45.6334
 21
318
 31
0
  0
LINE
  5
AA5
330
A02
100
AcDbEntity
  8
Shape2DView002
100
AcDbLine
 10
25.3666
 20
314
 30
0
 11
25.3666
 21
318
 31
0
  0
LINE
  5
AA6
330
A02
100
AcDbEntity
  8
Shape2DView002
100
AcDbLine
 10
45.6334
 20
318
 30
0
 11
25.3666
 21
318
 31
0
  0
CIRCLE
  5
AA7
330
A02
100
AcDbEntity
  8
Shape2DView002
100
AcDbCircle
 10
275
 20
173
 40
1.6
  0
CIRCLE
  5
AA8
330
A02
100
AcDbEntity
  8
Shape2DView002
100
AcDbCircle
 10
80
 20
173
 40
1.6
  0
CIRCLE
  5
AA9
330
A02
100
AcDbEntity
  8
Shape2DView002
100
AcDbCircle
 10
177.5
 20
173
 40
1.6
  0
LINE
  5
AAA
330
A02
100
AcDbEntity
  8
Shape2DView003
100
AcDbLine
 10
172
 20
-133
 30
0
 11
186.867
 21
-133
 31
0
  0
LINE
  5
AAB
330
A02
100
AcDbEntity
  8
Shape2DView003
100
AcDbLine
 10
172
 20
-133
 30
0
 11
172
 21
-13
 31
0
  0
LINE
  5
AAC
330
A02
100
AcDbEntity
  8
Shape2DView003
100
AcDbLine
 10
172
 20
-13
 30
0
 11
186.867
 21
-13
 31
0
  0
LINE
  5
AAD
330
A02
100
AcDbEntity
  8
Shape2DView003
100
AcDbLine
 10
186.867
 20
-133
 30
0
 11
186.867
 21
-137
 31
0
  0
LINE
  5
AAE
330
A02
100
AcDbEntity
  8
Shape2DView003
100
AcDbLine
 10
207.133
 20
-137
 30
0
 11
186.867
 21
-137
 31
0
  0
LINE
  5
AAF
330
A02
100
AcDbEntity
  8
Shape2DView003
100
AcDbLine
 10
207.133
 20
-133
 30
0
 11
207.133
 21
-137
 31
0
  0
LINE
  5
AB0
330
A02
100
AcDbEntity
  8
Shape2DView003
100
AcDbLine
 10
207.133
 20
-133
 30
0
 11
236.867
 21
-133
 31
0
  0
LINE
  5
AB1
330
A02
100
AcDbEntity
  8
Shape2DView003
100
AcDbLine
 10
236.867
 20
-133
 30
0
 11
236.867
 21
-137
 31
0
  0
LINE
  5
AB2
330
A02
100
AcDbEntity
  8
Shape2DView003
100
AcDbLine
 10
257.133
 20
-137
 30
0
 11
236.867
 21
-137
 31
0
  0
LINE
  5
AB3
330
A02
100
AcDbEntity
  8
Shape2DView003
100
AcDbLine
 10
257.133
 20
-133
 30
0
 11
257.133
 21
-137
 31
0
  0
LINE
  5
AB4
330
A02
100
AcDbEntity
  8
Shape2DView003
100
AcDbLine
 10
257.133
 20
-133
 30
0
 11
286.867
 21
-133
 31
0
  0
LINE
  5
AB5
330
A02
100
AcDbEntity
  8
Shape2DView003
100
AcDbLine
 10
286.867
 20
-133
 30
0
 11
286.867
 21
-137
 31
0
  0
LINE
  5
AB6
330
A02
100
AcDbEntity
  8
Shape2DView003
100
AcDbLine
 10
307.133
 20
-137
 30
0
 11
286.867
 21
-137
 31
0
  0
LINE
  5
AB7
330
A02
100
AcDbEntity
  8
Shape2DView003
100
AcDbLine
 10
307.133
 20
-133
 30
0
 11
307.133
 21
-137
 31
0
  0
LINE
  5
AB8
330
A02
100
AcDbEntity
  8
Shape2DView003
100
AcDbLine
 10
307.133
 20
-133
 30
0
 11
322
 21
-133
 31
0
  0
LINE
  5
AB9
330
A02
100
AcDbEntity
  8
Shape2DView003
100
AcDbLine
 10
322
 20
-133
 30
0
 11
322
 21
-113.133
 31
0
  0
LINE
  5
ABA
330
A02
100
AcDbEntity
  8
Shape2DView003
100
AcDbLine
 10
322
 20
-113.133
 30
0
 11
326
 21
-113.133
 31
0
  0
LINE
  5
ABB
330
A02
100
AcDbEntity
  8
Shape2DView003
100
AcDbLine
 10
326
 20
-113.133
 30
0
 11
326
 21
-92.8667
 31
0
  0
LINE
  5
ABC
330
A02
100
AcDbEntity
  8
Shape2DView003
100
AcDbLine
 10
322
 20
-92.8667
 30
0
 11
322
 21
-53.1333
 31
0
  0
LINE
  5
ABD
330
A02
100
AcDbEntity
  8
Shape2DView003
100
AcDbLine
 10
322
 20
-92.8667
 30
0
 11
326
 21
-92.8667
 31
0
  0
LINE
  5
ABE
330
A02
100
AcDbEntity
  8
Shape2DView003
100
AcDbLine
 10
322
 20
-53.1333
 30
0
 11
326
 21
-53.1333
 31
0
  0
LINE
  5
ABF
330
A02
100
AcDbEntity
  8
Shape2DView003
100
AcDbLine
 10
326
 20
-53.1333
 30
0
 11
326
 21
-32.8667
 31
0
  0
LINE
  5
AC0
330
A02
100
AcDbEntity
  8
Shape2DView003
100
AcDbLine
 10
322
 20
-32.8667
 30
0
 11
322
 21
-13
 31
0
  0
LINE
  5
AC1
330
A02
100
AcDbEntity
  8
Shape2DView003
100
AcDbLine
 10
307.133
 20
-13
 30
0
 11
322
 21
-13
 31
0
  0
LINE
  5
AC2
330
A02
100
AcDbEntity
  8
Shape2DView003
100
AcDbLine
 10
322
 20
-32.8667
 30
0
 11
326
 21
-32.8667
 31
0
  0
LINE
  5
AC3
330
A02
100
AcDbEntity
  8
Shape2DView003
100
AcDbLine
 10
186.867
 20
-13
 30
0
 11
186.867
 21
-9
 31
0
  0
LINE
  5
AC4
330
A02
100
AcDbEntity
  8
Shape2DView003
100
AcDbLine
 10
207.133
 20
-9
 30
0
 11
186.867
 21
-9
 31
0
  0
LINE
  5
AC5
330
A02
100
AcDbEntity
  8
Shape2DView003
100
AcDbLine
 10
207.133
 20
-13
 30
0
 11
207.133
 21
-9
 31
0
  0
LINE
  5
AC6
330
A02
100
AcDbEntity
  8
Shape2DView003
100
AcDbLine
 10
207.133
 20
-13
 30
0
 11
236.867
 21
-13
 31
0
  0
LINE
  5
AC7
330
A02
100
AcDbEntity
  8
Shape2DView003
100
AcDbLine
 10
236.867
 20
-13
 30
0
 11
236.867
 21
-9
 31
0
  0
LINE
  5
AC8
330
A02
100
AcDbEntity
  8
Shape2DView003
100
AcDbLine
 10
257.133
 20
-9
 30
0
 11
236.867
 21
-9
 31
0
  0
LINE
  5
AC9
330
A02
100
AcDbEntity
  8
Shape2DView003
100
AcDbLine
 10
257.133
 20
-13
 30
0
 11
257.133
 21
-9
 31
0
  0
LINE
  5
ACA
330
A02
100
AcDbEntity
  8
Shape2DView003
100
AcDbLine
 10
257.133
 20
-13
 30
0
 11
286.867
 21
-13
 31
0
  0
LINE
  5
ACB
330
A02
100
AcDbEntity
  8
Shape2DView003
100
AcDbLine
 10
286.867
 20
-13
 30
0
 11
286.867
 21
-9
 31
0
  0
LINE
  5
ACC
330
A02
100
AcDbEntity
  8
Shape2DView003
100
AcDbLine
 10
307.133
 20
-9
 30
0
 11
286.867
 21
-9
 31
0
  0
LINE
  5
ACD
330
A02
100
AcDbEntity
  8
Shape2DView003
100
AcDbLine
 10
307.133
 20
-13
 30
0
 11
307.133
 21
-9
 31
0
  0
CIRCLE
  5
ACE
330
A02
100
AcDbEntity
  8
Shape2DView003
100
AcDbCircle
 10
181
 20
-43
 40
1.6
  0
CIRCLE
  5
ACF
330
A02
100
AcDbEntity
  8
Shape2DView003
100
AcDbCircle
 10
181
 20
-103
 40
1.6
  0
LINE
  5
AD0
330
A02
100
AcDbEntity
  8
Shape2DView004
100
AcDbLine
 10
3.575e-14
 20
-133
 30
0
 11
14.8667
 21
-133
 31
0
  0
LINE
  5
AD1
330
A02
100
AcDbEntity
  8
Shape2DView004
100
AcDbLine
 10
3.575e-14
 20
-133
 30
0
 11
3.575e-14
 21
-13
 31
0
  0
LINE
  5
AD2
330
A02
100
AcDbEntity
  8
Shape2DView004
100
AcDbLine
 10
3.575e-14
 20
-13
 30
0
 11
14.8667
 21
-13
 31
0
  0
LINE
  5
AD3
330
A02
100
AcDbEntity
  8
Shape2DView004
100
AcDbLine
 10
14.8667
 20
-133
 30
0
 11
14.8667
 21
-137
 31
0
  0
LINE
  5
AD4
330
A02
100
AcDbEntity
  8
Shape2DView004
100
AcDbLine
 10
35.1334
 20
-137
 30
0
 11
14.8667
 21
-137
 31
0
  0
LINE
  5
AD5
330
A02
100
AcDbEntity
  8
Shape2DView004
100
AcDbLine
 10
35.1334
 20
-133
 30
0
 11
35.1334
 21
-137
 31
0
  0
LINE
  5
AD6
330
A02
100
AcDbEntity
  8
Shape2DView004
100
AcDbLine
 10
35.1334
 20
-133
 30
0
 11
64.8667
 21
-133
 31
0
  0
LINE
  5
AD7
330
A02
100
AcDbEntity
  8
Shape2DView004
100
AcDbLine
 10
64.8667
 20
-133
 30
0
 11
64.8667
 21
-137
 31
0
  0
LINE
  5
AD8
330
A02
100
AcDbEntity
  8
Shape2DView004
100
AcDbLine
 10
85.1334
 20
-137
 30
0
 11
64.8667
 21
-137
 31
0
  0
LINE
  5
AD9
330
A02
100
AcDbEntity
  8
Shape2DView004
100
AcDbLine
 10
85.1334
 20
-133
 30
0
 11
85.1334
 21
-137
 31
0
  0
LINE
  5
ADA
330
A02
100
AcDbEntity
  8
Shape2DView004
100
AcDbLine
 10
85.1334
 20
-133
 30
0
 11
114.867
 21
-133
 31
0
  0
LINE
  5
ADB
330
A02
100
AcDbEntity
  8
Shape2DView004
100
AcDbLine
 10
114.867
 20
-133
 30
0
 11
114.867
 21
-137
 31
0
  0
LINE
  5
ADC
330
A02
100
AcDbEntity
  8
Shape2DView004
100
AcDbLine
 10
135.133
 20
-137
 30
0
 11
114.867
 21
-137
 31
0
  0
LINE
  5
ADD
330
A02
100
AcDbEntity
  8
Shape2DView004
100
AcDbLine
 10
135.133
 20
-133
 30
0
 11
135.133
 21
-137
 31
0
  0
LINE
  5
ADE
330
A02
100
AcDbEntity
  8
Shape2DView004
100
AcDbLine
 10
135.133
 20
-133
 30
0
 11
150
 21
-133
 31
0
  0
LINE
  5
ADF
330
A02
100
AcDbEntity
  8
Shape2DView004
100
AcDbLine
 10
150
 20
-133
 30
0
 11
150
 21
-113.133
 31
0
  0
LINE
  5
AE0
330
A02
100
AcDbEntity
  8
Shape2DView004
100
AcDbLine
 10
150
 20
-113.133
 30
0
 11
154
 21
-113.133
 31
0
  0
LINE
  5
AE1
330
A02
100
AcDbEntity
  8
Shape2DView004
100
AcDbLine
 10
154
 20
-113.133
 30
0
 11
154
 21
-92.8666
 31
0
  0
LINE
  5
AE2
330
A02
100
AcDbEntity
  8
Shape2DView004
100
AcDbLine
 10
150
 20
-92.8666
 30
0
 11
150
 21
-53.1333
 31
0
  0
LINE
  5
AE3
330
A02
100
AcDbEntity
  8
Shape2DView004
100
AcDbLine
 10
150
 20
-92.8666
 30
0
 11
154
 21
-92.8666
 31
0
  0
LINE
  5
AE4
330
A02
100
AcDbEntity
  8
Shape2DView004
100
AcDbLine
 10
150
 20
-53.1333
 30
0
 11
154
 21
-53.1333
 31
0
  0
LINE
  5
AE5
330
A02
100
AcDbEntity
  8
Shape2DView004
100
AcDbLine
 10
154
 20
-53.1333
 30
0
 11
154
 21
-32.8666
 31
0
  0
LINE
  5
AE6
330
A02
100
AcDbEntity
  8
Shape2DView004
100
AcDbLine
 10
150
 20
-32.8666
 30
0
 11
150
 21
-13
 31
0
  0
LINE
  5
AE7
330
A02
100
AcDbEntity
  8
Shape2DView004
100
AcDbLine
 10
135.133
 20
-13
 30
0
 11
150
 21
-13
 31
0
  0
LINE
  5
AE8
330
A02
100
AcDbEntity
  8
Shape2DView004
100
AcDbLine
 10
150
 20
-32.8666
 30
0
 11
154
 21
-32.8666
 31
0
  0
LINE
  5
AE9
330
A02
100
AcDbEntity
  8
Shape2DView004
100
AcDbLine
 10
14.8667
 20
-13
 30
0
 11
14.8667
 21
-9
 31
0
  0
LINE
  5
AEA
330
A02
100
AcDbEntity
  8
Shape2DView004
100
AcDbLine
 10
35.1334
 20
-9
 30
0
 11
14.8667
 21
-9
 31
0
  0
LINE
  5
AEB
330
A02
100
AcDbEntity
  8
Shape2DView004
100
AcDbLine
 10
35.1334
 20
-13
 30
0
 11
35.1334
 21
-9
 31
0
  0
LINE
  5
AEC
330
A02
100
AcDbEntity
  8
Shape2DView004
100
AcDbLine
 10
35.1334
 20
-13
 30
0
 11
64.8667
 21
-13
 31
0
  0
LINE
  5
AED
330
A02
100
AcDbEntity
  8
Shape2DView004
100
AcDbLine
 10
64.8667
 20
-13
 30
0
 11
64.8667
 21
-9
 31
0
  0
LINE
  5
AEE
330
A02
100
AcDbEntity
  8
Shape2DView004
100
AcDbLine
 10
85.1334
 20
-9
 30
0
 11
64.8667
 21
-9
 31
0
  0
LINE
  5
AEF
330
A02
100
AcDbEntity
  8
Shape2DView004
100
AcDbLine
 10
85.1334
 20
-13
 30
0
 11
85.1334
 21
-9
 31
0
  0
LINE
  5
AF0
330
A02
100
AcDbEntity
  8
Shape2DView004
100
AcDbLine
 10
85.1334
 20
-13
 30
0
 11
114.867
 21
-13
 31
0
  0
LINE
  5
AF1
330
A02
100
AcDbEntity
  8
Shape2DView004
100
AcDbLine
 10
114.867
 20
-13
 30
0
 11
114.867
 21
-9
 31
0
  0
LINE
  5
AF2
330
A02
100
AcDbEntity
  8
Shape2DView004
100
AcDbLine
 10
135.133
 20
-9
 30
0
 11
114.867
 21
-9
 31
0
  0
LINE
  5
AF3
330
A02
100
AcDbEntity
  8
Shape2DView004
100
AcDbLine
 10
135.133
 20
-13
 30
0
 11
135.133
 21
-9
 31
0
  0
LINE
  5
AF4
330
A02
100
AcDbEntity
  8
Shape2DView004
100
AcDbLine
 10
52.5
 20
-116.5
 30
0
 11
83.5
 21
-116.5
 31
0
  0
LINE
  5
AF5
330
A02
100
AcDbEntity
  8
Shape2DView004
100
AcDbLine
 10
52.5
 20
-89.5
 30
0
 11
52.5
 21
-116.5
 31
0
  0
LINE
  5
AF6
330
A02
100
AcDbEntity
  8
Shape2DView004
100
AcDbLine
 10
83.5
 20
-89.5
 30
0
 11
52.5
 21
-89.5
 31
0
  0
LINE
  5
AF7
330
A02
100
AcDbEntity
  8
Shape2DView004
100
AcDbLine
 10
83.5
 20
-116.5
 30
0
 11
83.5
 21
-89.5
 31
0
  0
CIRCLE
  5
AF8
330
A02
100
AcDbEntity
  8
Shape2DView004
100
AcDbCircle
 10
68
 20
-43
 40
8
  0
CIRCLE
  5
AF9
330
A02
100
AcDbEntity
  8
Shape2DView004
100
AcDbCircle
 10
68
 20
-121.25
 40
1.75
  0
CIRCLE
  5
AFA
330
A02
100
AcDbEntity
  8
Shape2DView004
100
AcDbCircle
 10
68
 20
-84.75
 40
1.75
  0
CIRCLE
  5
AFB
330
A02
100
AcDbEntity
  8
Shape2DView004
100
AcDbCircle
 10
9
 20
-43
 40
1.6
  0
CIRCLE
  5
AFC
330
A02
100
AcDbEntity
  8
Shape2DView004
100
AcDbCircle
 10
9
 20
-103
 40
1.6
  0
ENDSEC
  0
SECTION
  2
OBJECTS
  0
DICTIONARY
  5
F000
330
0
100
AcDbDictionary
  3
ACAD_GROUP
350
F001
  0
DICTIONARY
  5
F001
330
F000
100
AcDbDictionary
  0
ENDSEC
  0
EOF