0
SECTION
2
HEADER
9
$INSUNITS
70
4
9
$ACADVER
1
AC1014
9
$HANDSEED
5
FFFF
0
ENDSEC
0
SECTION
2
TABLES
0
TABLE
2
VPORT
5
8
100
AcDbSymbolTable
0
ENDTAB
0
TABLE
2
LTYPE
5
5
100
AcDbSymbolTable
0
LTYPE
5
14
100
AcDbSymbolTableRecord
100
AcDbLinetypeTableRecord
2
BYBLOCK
70
0
0
LTYPE
5
15
100
AcDbSymbolTableRecord
100
AcDbLinetypeTableRecord
2
BYLAYER
70
0
0
ENDTAB
0
TABLE
2
LAYER
5
2
100
AcDbSymbolTable
70
2
0
LAYER
5
50
100
AcDbSymbolTableRecord
100
AcDbLayerTableRecord
2
0
70
0
6
CONTINUOUS
0
ENDTAB
0
TABLE
2
STYLE
5
3
100
AcDbSymbolTable
70
1
0
STYLE
5
11
100
AcDbSymbolTableRecord
100
AcDbTextStyleTableRecord
2
STANDARD
70
0
0
ENDTAB
0
TABLE
2
VIEW
5
6
100
AcDbSymbolTable
70
0
0
ENDTAB
0
TABLE
2
UCS
5
7
100
AcDbSymbolTable
70
0
0
ENDTAB
0
TABLE
2
APPID
5
9
100
AcDbSymbolTable
70
2
0
APPID
5
12
100
AcDbSymbolTableRecord
100
AcDbRegAppTableRecord
2
ACAD
70
0
0
ENDTAB
0
TABLE
2
DIMSTYLE
5
A
100
AcDbSymbolTable
70
1
0
ENDTAB
0
TABLE
2
BLOCK_RECORD
5
1
100
AcDbSymbolTable
70
1
0
BLOCK_RECORD
5
1F
100
AcDbSymbolTableRecord
100
AcDbBlockTableRecord
2
*MODEL_SPACE
0
BLOCK_RECORD
5
1B
100
AcDbSymbolTableRecord
100
AcDbBlockTableRecord
2
*PAPER_SPACE
0
ENDTAB
0
ENDSEC
0
SECTION
2
BLOCKS
0
BLOCK
5
20
100
AcDbEntity
100
AcDbBlockBegin
2
*MODEL_SPACE
0
ENDBLK
5
21
100
AcDbEntity
100
AcDbBlockEnd
0
BLOCK
5
1C
100
AcDbEntity
100
AcDbBlockBegin
2
*PAPER_SPACE
0
ENDBLK
5
1D
100
AcDbEntity
100
AcDbBlockEnd
0
ENDSEC
0
SECTION
2
ENTITIES
0
LINE
5
100
100
AcDbEntity
8
0
100
AcDbLine
10
64
20
-11.657691453874765
30
0
11
39
21
-2.2204460492503131e-15
31
0
0
LINE
5
101
100
AcDbEntity
8
0
100
AcDbLine
10
39
20
-2.2204460492503131e-15
30
0
11
-38.999999999999993
21
0
31
0
0
LINE
5
102
100
AcDbEntity
8
0
100
AcDbLine
10
-38.999999999999993
20
0
30
0
11
-55
21
-2.8212316913353348
31
0
0
LINE
5
103
100
AcDbEntity
8
0
100
AcDbLine
10
-55
20
-66
30
0
11
5
21
-65.999999999999986
31
0
0
LINE
5
104
100
AcDbEntity
8
0
100
AcDbLine
10
5
20
-65.999999999999986
30
0
11
12.000000000000002
21
-59.000000000000014
31
0
0
LINE
5
105
100
AcDbEntity
8
0
100
AcDbLine
10
12.000000000000002
20
-59.000000000000014
30
0
11
26.5
21
-56.999999999999993
31
0
0
LINE
5
106
100
AcDbEntity
8
0
100
AcDbLine
10
26.5
20
-56.999999999999993
30
0
11
48
21
-63.000000000000014
31
0
0
LINE
5
107
100
AcDbEntity
8
0
100
AcDbLine
10
48
20
-63.000000000000014
30
0
11
64
21
-19.040361288726189
31
0
0
LINE
5
108
100
AcDbEntity
8
0
100
AcDbLine
10
64
20
-19.040361288726189
30
0
11
64
21
-11.657691453874765
31
0
0
CIRCLE
5
109
100
AcDbEntity
8
0
100
AcDbCircle
10
-49.499999999999993
20
-60.500000000000007
30
0
40
1.5500000000000027
0
CIRCLE
5
110
100
AcDbEntity
8
0
100
AcDbCircle
10
50
20
-10
30
0
40
1.5500000000000012
0
LINE
5
111
100
AcDbEntity
8
0
100
AcDbLine
10
-55
20
-66
30
0
11
-63
21
-66
31
0
0
LINE
5
112
100
AcDbEntity
8
0
100
AcDbLine
10
-55
20
-2.8212316913353348
30
0
11
-73.46809979223795
21
-6.0776559671231638
31
0
0
LINE
5
113
100
AcDbEntity
8
0
100
AcDbLine
10
-73.46809979223795
20
-6.0776559671231638
30
0
11
-145.46809979223795
21
-6.0776559671231638
31
0
0
LINE
5
114
100
AcDbEntity
8
0
100
AcDbLine
10
-145.46809979223795
20
-6.0776559671231638
30
0
11
-145.46809979223795
21
-51.077655967123164
31
0
0
LINE
5
115
100
AcDbEntity
8
0
100
AcDbLine
10
-145.46809979223795
20
-51.077655967123164
30
0
11
-63
21
-66
31
0
0
LINE
5
116
100
AcDbEntity
8
0
100
AcDbLine
10
-55
20
-2.8212316913353348
30
0
11
-38.999999999999993
21
0
31
0
0
LINE
5
117
100
AcDbEntity
8
0
100
AcDbLine
10
-38.999999999999993
20
0
30
0
11
39
21
-2.2204460492503131e-15
31
0
0
LINE
5
118
100
AcDbEntity
8
0
100
AcDbLine
10
64
20
-11.657691453874765
30
0
11
64
21
-19.040361288726189
31
0
0
LINE
5
119
100
AcDbEntity
8
0
100
AcDbLine
10
64
20
-19.040361288726189
30
0
11
48
21
-63.000000000000014
31
0
0
LINE
5
120
100
AcDbEntity
8
0
100
AcDbLine
10
26.5
20
-56.999999999999993
30
0
11
12.000000000000002
21
-59.000000000000014
31
0
0
LINE
5
121
100
AcDbEntity
8
0
100
AcDbLine
10
5
20
-65.999999999999986
30
0
11
-55
21
-66
31
0
0
LINE
5
122
100
AcDbEntity
8
0
100
AcDbLine
10
39
20
-2.2204460492503131e-15
30
0
11
64
21
-11.657691453874765
31
0
0
LINE
5
123
100
AcDbEntity
8
0
100
AcDbLine
10
5
20
-65.999999999999986
30
0
11
12.000000000000002
21
-59.000000000000014
31
0
0
LINE
5
124
100
AcDbEntity
8
0
100
AcDbLine
10
26.5
20
-56.999999999999993
30
0
11
48
21
-63.000000000000014
31
0
0
LWPOLYLINE
5
125
100
AcDbEntity
8
0
100
AcDbPolyline
90
8
70
1
43
0.0
10
-128.46809979223795
20
-47.077655967123171
10
-115.46809979223795
20
-47.077655967123171
42
0.41421356237310281
10
-114.46809979223798
20
-46.077655967123164
10
-114.46809979223795
20
-9.077655967123162
42
0.41421356237309792
10
-115.46809979223795
20
-8.0776559671231638
10
-128.46809979223795
20
-8.0776559671231567
42
0.41421356237309825
10
-129.46809979223795
20
-9.0776559671231638
10
-129.46809979223792
20
-46.077655967123178
42
0.4142135623730977
0
LWPOLYLINE
5
126
100
AcDbEntity
8
0
100
AcDbPolyline
90
8
70
1
43
0.0
10
-81.46809979223795
20
-42.077655967123171
10
-57.468099792237943
20
-42.077655967123171
42
0.41421356237309509
10
-56.46809979223795
20
-41.077655967123178
10
-56.46809979223795
20
-16.077655967123164
42
0.4142135623730957
10
-57.468099792237943
20
-15.077655967123164
10
-81.46809979223795
20
-15.077655967123171
42
0.41421356237309437
10
-82.46809979223795
20
-16.077655967123164
10
-82.46809979223795
20
-41.077655967123178
42
0.41421356237309509
0
LWPOLYLINE
5
127
100
AcDbEntity
8
0
100
AcDbPolyline
90
24
70
1
43
0.0
10
-43.468099792237929
20
-23.997712271231016
10
23.905782056669
20
-23.997712271231006
42
-0.15287149058729582
10
25.04624606100198
20
-24.354744878121576
10
27.817834993980945
20
-26.278640279896941
42
-0.63145511188048853
10
27.379749323888287
20
-28.951661488703706
10
-2.2101472157575532
20
-37.52105795256292
42
-0.048439244430136974
10
-2.5901506417442821
20
-37.592207388562969
10
-18.380342108775206
20
-38.989922592530675
42
-0.022075541940654267
10
-18.556688460331372
20
-38.997712271231023
10
-43.468343239331837
20
-38.997712271231023
42
0.41421356237309509
10
-45.468343239331837
20
-40.997712271231023
10
-45.468343239331844
20
-56.997712271230981
42
0.4142135623730937
10
-43.468343239331816
20
-58.997712271230995
10
1.4758081454153031
20
-58.997712271230995
42
0.034279961759424493
10
1.7490829396893659
20
-58.978954529717939
10
43.01210652264416
20
-53.287503001034445
42
0.27801393286885634
10
44.618216969941187
20
-51.990301029199415
10
56.05349614574849
20
-20.572129708509351
42
0.38887873185298938
10
55.019347427658047
20
-18.075473847784682
10
25.236243549827485
20
-4.1873844259266946
42
0.10951781168323996
10
24.391007026346088
20
-3.9999999999999973
10
-43.46809979223795
20
-3.9999999999999991
42
0.41421356237309209
10
-45.46809979223795
20
-5.9999999999999982
10
-45.46809979223795
20
-21.997712271230995
42
0.41421356237309509
0
ENDSEC
0
SECTION
2
OBJECTS
0
DICTIONARY
5
C
100
AcDbDictionary
3
ACAD_GROUP
350
D
3
ACAD_MLINESTYLE
350
17
0
DICTIONARY
5
D
100
AcDbDictionary
0
DICTIONARY
5
1A
330
C
100
AcDbDictionary
0
DICTIONARY
5
17
100
AcDbDictionary
0
ENDSEC
0
EOF
