0
SECTION
2
HEADER
9
$INSUNITS
70
4
9
$ACADVER
1
AC1014
9
$HANDSEED
5
FFFF
0
ENDSEC
0
SECTION
2
TABLES
0
TABLE
2
VPORT
5
8
100
AcDbSymbolTable
0
ENDTAB
0
TABLE
2
LTYPE
5
5
100
AcDbSymbolTable
0
LTYPE
5
14
100
AcDbSymbolTableRecord
100
AcDbLinetypeTableRecord
2
BYBLOCK
70
0
0
LTYPE
5
15
100
AcDbSymbolTableRecord
100
AcDbLinetypeTableRecord
2
BYLAYER
70
0
0
ENDTAB
0
TABLE
2
LAYER
5
2
100
AcDbSymbolTable
70
2
0
LAYER
5
50
100
AcDbSymbolTableRecord
100
AcDbLayerTableRecord
2
0
70
0
6
CONTINUOUS
0
ENDTAB
0
TABLE
2
STYLE
5
3
100
AcDbSymbolTable
70
1
0
STYLE
5
11
100
AcDbSymbolTableRecord
100
AcDbTextStyleTableRecord
2
STANDARD
70
0
0
ENDTAB
0
TABLE
2
VIEW
5
6
100
AcDbSymbolTable
70
0
0
ENDTAB
0
TABLE
2
UCS
5
7
100
AcDbSymbolTable
70
0
0
ENDTAB
0
TABLE
2
APPID
5
9
100
AcDbSymbolTable
70
2
0
APPID
5
12
100
AcDbSymbolTableRecord
100
AcDbRegAppTableRecord
2
ACAD
70
0
0
ENDTAB
0
TABLE
2
DIMSTYLE
5
A
100
AcDbSymbolTable
70
1
0
ENDTAB
0
TABLE
2
BLOCK_RECORD
5
1
100
AcDbSymbolTable
70
1
0
BLOCK_RECORD
5
1F
100
AcDbSymbolTableRecord
100
AcDbBlockTableRecord
2
*MODEL_SPACE
0
BLOCK_RECORD
5
1B
100
AcDbSymbolTableRecord
100
AcDbBlockTableRecord
2
*PAPER_SPACE
0
ENDTAB
0
ENDSEC
0
SECTION
2
BLOCKS
0
BLOCK
5
20
100
AcDbEntity
100
AcDbBlockBegin
2
*MODEL_SPACE
0
ENDBLK
5
21
100
AcDbEntity
100
AcDbBlockEnd
0
BLOCK
5
1C
100
AcDbEntity
100
AcDbBlockBegin
2
*PAPER_SPACE
0
ENDBLK
5
1D
100
AcDbEntity
100
AcDbBlockEnd
0
ENDSEC
0
SECTION
2
ENTITIES
0
LWPOLYLINE
5
100
100
AcDbEntity
8
0
100
AcDbPolyline
90
24
70
1
43
0.0
10
-26.336999941246006
20
210.66299999874627
10
-26.336999941245999
20
164.66499999874628
42
-0.99999999999999989
10
-26.33699994124601
20
158.66499999874628
10
-26.336999941245999
20
81.334999998746284
42
-0.99999999999999989
10
-26.33699994124601
20
75.334999998746284
10
-26.336999941246013
20
29.336999998746283
42
-2.4142135623730949
10
-29.336999941246013
20
26.336999998746286
10
-75.334999941245997
20
26.336999998746286
42
-0.99999999999999989
10
-81.334999941246025
20
26.336999998746286
10
-158.66499994124598
20
26.336999998746286
42
-0.99999999999999989
10
-164.66499994124601
20
26.336999998746286
10
-210.66299994124597
20
26.336999998746286
42
-2.4142135623730949
10
-213.662999941246
20
29.336999998746293
10
-213.662999941246
20
75.33499999874627
42
-0.99999999999999989
10
-213.662999941246
20
81.334999998746298
10
-213.662999941246
20
158.66499999874628
42
-0.99999999999999989
10
-213.662999941246
20
164.66499999874628
10
-213.662999941246
20
210.6629999987463
42
-2.4142135623730949
10
-210.66299994124603
20
213.66299999874627
10
-164.66499994124601
20
213.66299999874627
42
-0.99999999999999989
10
-158.66499994124598
20
213.66299999874627
10
-81.334999941246025
20
213.66299999874627
42
-0.99999999999999989
10
-75.334999941245982
20
213.66299999874627
10
-29.336999941246013
20
213.66299999874627
42
-2.4142135623730949
0
LWPOLYLINE
5
101
100
AcDbEntity
8
0
100
AcDbPolyline
90
4
70
1
43
0.0
10
-143.99899994124598
20
95.000999998746281
10
-128.33299994124599
20
95.000999998746281
10
-128.33299994124599
20
110.66699999874629
10
-143.99899994124598
20
110.66699999874629
0
LWPOLYLINE
5
102
100
AcDbEntity
8
0
100
AcDbPolyline
90
4
70
1
43
0.0
10
-127.332999941246
20
95.000999998746281
10
-111.66699994124599
20
95.000999998746281
10
-111.66699994124599
20
110.66699999874629
10
-127.332999941246
20
110.66699999874629
0
LWPOLYLINE
5
103
100
AcDbEntity
8
0
100
AcDbPolyline
90
4
70
1
43
0.0
10
-110.66699994124602
20
111.66699999874626
10
-95.000999941245993
20
111.66699999874626
10
-95.000999941245993
20
127.33299999874629
10
-110.66699994124602
20
127.33299999874629
0
LWPOLYLINE
5
104
100
AcDbEntity
8
0
100
AcDbPolyline
90
4
70
1
43
0.0
10
-94.000999941246008
20
111.66699999874626
10
-78.334999941245997
20
111.66699999874626
10
-78.334999941245997
20
127.33299999874629
10
-94.000999941246008
20
127.33299999874629
0
LWPOLYLINE
5
105
100
AcDbEntity
8
0
100
AcDbPolyline
90
4
70
1
43
0.0
10
-127.332999941246
20
78.334999998746284
10
-111.66699994124599
20
78.334999998746284
10
-111.66699994124599
20
94.000999998746281
10
-127.332999941246
20
94.000999998746281
0
LWPOLYLINE
5
106
100
AcDbEntity
8
0
100
AcDbPolyline
90
4
70
1
43
0.0
10
-127.332999941246
20
128.33299999874626
10
-111.66699994124599
20
128.33299999874626
10
-111.66699994124599
20
143.99899999874629
10
-127.332999941246
20
143.99899999874629
0
LWPOLYLINE
5
107
100
AcDbEntity
8
0
100
AcDbPolyline
90
4
70
1
43
0.0
10
-127.332999941246
20
144.99899999874629
10
-111.66699994124599
20
144.99899999874629
10
-111.66699994124599
20
160.66499999874628
10
-127.332999941246
20
160.66499999874628
0
LWPOLYLINE
5
108
100
AcDbEntity
8
0
100
AcDbPolyline
90
4
70
1
43
0.0
10
-110.66699994124602
20
95.000999998746281
10
-95.000999941245993
20
95.000999998746281
10
-95.000999941245993
20
110.66699999874629
10
-110.66699994124602
20
110.66699999874629
0
LWPOLYLINE
5
109
100
AcDbEntity
8
0
100
AcDbPolyline
90
4
70
1
43
0.0
10
-110.66699994124602
20
78.334999998746284
10
-95.000999941245993
20
78.334999998746284
10
-95.000999941245993
20
94.000999998746281
10
-110.66699994124602
20
94.000999998746281
0
LWPOLYLINE
5
110
100
AcDbEntity
8
0
100
AcDbPolyline
90
4
70
1
43
0.0
10
-110.66699994124602
20
128.33299999874626
10
-95.000999941245993
20
128.33299999874626
10
-95.000999941245993
20
143.99899999874629
10
-110.66699994124602
20
143.99899999874629
0
LWPOLYLINE
5
111
100
AcDbEntity
8
0
100
AcDbPolyline
90
4
70
1
43
0.0
10
-94.000999941246008
20
128.33299999874626
10
-78.334999941245997
20
128.33299999874626
10
-78.334999941245997
20
143.99899999874629
10
-94.000999941246008
20
143.99899999874629
0
LWPOLYLINE
5
112
100
AcDbEntity
8
0
100
AcDbPolyline
90
4
70
1
43
0.0
10
-143.99899994124598
20
144.99899999874629
10
-128.33299994124599
20
144.99899999874629
10
-128.33299994124599
20
160.66499999874628
10
-143.99899994124598
20
160.66499999874628
0
LWPOLYLINE
5
113
100
AcDbEntity
8
0
100
AcDbPolyline
90
4
70
1
43
0.0
10
-160.66499994124601
20
111.66699999874626
10
-144.99899994124601
20
111.66699999874626
10
-144.99899994124601
20
127.33299999874629
10
-160.66499994124601
20
127.33299999874629
0
LWPOLYLINE
5
114
100
AcDbEntity
8
0
100
AcDbPolyline
90
4
70
1
43
0.0
10
-143.99899994124598
20
78.334999998746284
10
-128.33299994124599
20
78.334999998746284
10
-128.33299994124599
20
94.000999998746281
10
-143.99899994124598
20
94.000999998746281
0
LWPOLYLINE
5
115
100
AcDbEntity
8
0
100
AcDbPolyline
90
4
70
1
43
0.0
10
-94.000999941246008
20
95.000999998746281
10
-78.334999941245997
20
95.000999998746281
10
-78.334999941245997
20
110.66699999874629
10
-94.000999941246008
20
110.66699999874629
0
LWPOLYLINE
5
116
100
AcDbEntity
8
0
100
AcDbPolyline
90
4
70
1
43
0.0
10
-94.000999941246008
20
78.334999998746284
10
-78.334999941245997
20
78.334999998746284
10
-78.334999941245997
20
94.000999998746281
10
-94.000999941246008
20
94.000999998746281
0
LWPOLYLINE
5
117
100
AcDbEntity
8
0
100
AcDbPolyline
90
4
70
1
43
0.0
10
-110.66699994124602
20
144.99899999874629
10
-95.000999941245993
20
144.99899999874629
10
-95.000999941245993
20
160.66499999874628
10
-110.66699994124602
20
160.66499999874628
0
LWPOLYLINE
5
118
100
AcDbEntity
8
0
100
AcDbPolyline
90
4
70
1
43
0.0
10
-94.000999941246008
20
144.99899999874629
10
-78.334999941245997
20
144.99899999874629
10
-78.334999941245997
20
160.66499999874628
10
-94.000999941246008
20
160.66499999874628
0
LWPOLYLINE
5
119
100
AcDbEntity
8
0
100
AcDbPolyline
90
4
70
1
43
0.0
10
-160.66499994124601
20
128.33299999874626
10
-144.99899994124601
20
128.33299999874626
10
-144.99899994124601
20
143.99899999874629
10
-160.66499994124601
20
143.99899999874629
0
LWPOLYLINE
5
120
100
AcDbEntity
8
0
100
AcDbPolyline
90
4
70
1
43
0.0
10
-160.66499994124601
20
144.99899999874629
10
-144.99899994124601
20
144.99899999874629
10
-144.99899994124601
20
160.66499999874628
10
-160.66499994124601
20
160.66499999874628
0
LWPOLYLINE
5
121
100
AcDbEntity
8
0
100
AcDbPolyline
90
4
70
1
43
0.0
10
-160.66499994124601
20
95.000999998746281
10
-144.99899994124601
20
95.000999998746281
10
-144.99899994124601
20
110.66699999874629
10
-160.66499994124601
20
110.66699999874629
0
LWPOLYLINE
5
122
100
AcDbEntity
8
0
100
AcDbPolyline
90
4
70
1
43
0.0
10
-160.66499994124601
20
78.334999998746284
10
-144.99899994124601
20
78.334999998746284
10
-144.99899994124601
20
94.000999998746281
10
-160.66499994124601
20
94.000999998746281
0
LWPOLYLINE
5
123
100
AcDbEntity
8
0
100
AcDbPolyline
90
4
70
1
43
0.0
10
-127.332999941246
20
61.668999998746287
10
-111.66699994124599
20
61.668999998746287
10
-111.66699994124599
20
77.334999998746284
10
-127.332999941246
20
77.334999998746298
0
LWPOLYLINE
5
124
100
AcDbEntity
8
0
100
AcDbPolyline
90
4
70
1
43
0.0
10
-94.000999941246008
20
61.668999998746287
10
-78.334999941245997
20
61.668999998746287
10
-78.334999941245997
20
77.334999998746284
10
-94.000999941246008
20
77.334999998746284
0
LWPOLYLINE
5
125
100
AcDbEntity
8
0
100
AcDbPolyline
90
4
70
1
43
0.0
10
-77.334999941246011
20
95.000999998746281
10
-61.668999941246
20
95.000999998746281
10
-61.668999941246
20
110.66699999874629
10
-77.334999941246011
20
110.66699999874629
0
LWPOLYLINE
5
126
100
AcDbEntity
8
0
100
AcDbPolyline
90
4
70
1
43
0.0
10
-77.334999941246011
20
128.33299999874626
10
-61.668999941246
20
128.33299999874626
10
-61.668999941246
20
143.99899999874629
10
-77.334999941246011
20
143.99899999874629
0
LWPOLYLINE
5
127
100
AcDbEntity
8
0
100
AcDbPolyline
90
4
70
1
43
0.0
10
-94.000999941246008
20
161.66499999874628
10
-78.334999941245997
20
161.66499999874628
10
-78.334999941245997
20
177.33099999874625
10
-94.000999941246008
20
177.33099999874625
0
LWPOLYLINE
5
128
100
AcDbEntity
8
0
100
AcDbPolyline
90
4
70
1
43
0.0
10
-127.332999941246
20
161.66499999874628
10
-111.66699994124599
20
161.66499999874628
10
-111.66699994124599
20
177.33099999874625
10
-127.332999941246
20
177.33099999874628
0
LWPOLYLINE
5
129
100
AcDbEntity
8
0
100
AcDbPolyline
90
4
70
1
43
0.0
10
-160.66499994124601
20
161.66499999874628
10
-144.99899994124601
20
161.66499999874628
10
-144.99899994124601
20
177.33099999874628
10
-160.66499994124601
20
177.33099999874628
0
LWPOLYLINE
5
130
100
AcDbEntity
8
0
100
AcDbPolyline
90
4
70
1
43
0.0
10
-177.33099994124601
20
128.33299999874626
10
-161.66499994124598
20
128.33299999874626
10
-161.66499994124598
20
143.99899999874629
10
-177.33099994124601
20
143.99899999874629
0
LWPOLYLINE
5
131
100
AcDbEntity
8
0
100
AcDbPolyline
90
4
70
1
43
0.0
10
-177.33099994124601
20
95.000999998746281
10
-161.66499994124598
20
95.000999998746281
10
-161.66499994124598
20
110.66699999874629
10
-177.33099994124601
20
110.66699999874629
0
LWPOLYLINE
5
132
100
AcDbEntity
8
0
100
AcDbPolyline
90
4
70
1
43
0.0
10
-160.66499994124601
20
61.668999998746287
10
-144.99899994124601
20
61.668999998746287
10
-144.99899994124601
20
77.334999998746298
10
-160.66499994124601
20
77.334999998746298
0
LWPOLYLINE
5
133
100
AcDbEntity
8
0
100
AcDbPolyline
90
4
70
1
43
0.0
10
-110.66699994124602
20
61.668999998746287
10
-95.000999941245993
20
61.668999998746287
10
-95.000999941245993
20
77.334999998746284
10
-110.66699994124602
20
77.334999998746284
0
LWPOLYLINE
5
134
100
AcDbEntity
8
0
100
AcDbPolyline
90
4
70
1
43
0.0
10
-143.99899994124598
20
61.668999998746287
10
-128.33299994124599
20
61.668999998746287
10
-128.33299994124599
20
77.334999998746298
10
-143.99899994124598
20
77.334999998746298
0
LWPOLYLINE
5
135
100
AcDbEntity
8
0
100
AcDbPolyline
90
4
70
1
43
0.0
10
-77.334999941246011
20
78.334999998746284
10
-61.668999941246
20
78.334999998746284
10
-61.668999941246
20
94.000999998746266
10
-77.334999941246011
20
94.000999998746281
0
LWPOLYLINE
5
136
100
AcDbEntity
8
0
100
AcDbPolyline
90
4
70
1
43
0.0
10
-77.334999941246011
20
61.668999998746287
10
-61.668999941246
20
61.668999998746287
10
-61.668999941246
20
77.334999998746284
10
-77.334999941246011
20
77.334999998746284
0
LWPOLYLINE
5
137
100
AcDbEntity
8
0
100
AcDbPolyline
90
4
70
1
43
0.0
10
-77.334999941246011
20
111.66699999874626
10
-61.668999941246
20
111.66699999874626
10
-61.668999941246
20
127.33299999874629
10
-77.334999941246011
20
127.33299999874629
0
LWPOLYLINE
5
138
100
AcDbEntity
8
0
100
AcDbPolyline
90
4
70
1
43
0.0
10
-77.334999941246011
20
144.99899999874629
10
-61.668999941246
20
144.99899999874629
10
-61.668999941246
20
160.66499999874628
10
-77.334999941246011
20
160.66499999874628
0
LWPOLYLINE
5
139
100
AcDbEntity
8
0
100
AcDbPolyline
90
4
70
1
43
0.0
10
-110.66699994124602
20
161.66499999874628
10
-95.000999941245993
20
161.66499999874628
10
-95.000999941245993
20
177.33099999874625
10
-110.66699994124602
20
177.33099999874625
0
LWPOLYLINE
5
140
100
AcDbEntity
8
0
100
AcDbPolyline
90
4
70
1
43
0.0
10
-143.99899994124598
20
161.66499999874628
10
-128.33299994124599
20
161.66499999874628
10
-128.33299994124599
20
177.33099999874628
10
-143.99899994124598
20
177.33099999874628
0
LWPOLYLINE
5
141
100
AcDbEntity
8
0
100
AcDbPolyline
90
4
70
1
43
0.0
10
-177.33099994124601
20
144.99899999874629
10
-161.66499994124598
20
144.99899999874629
10
-161.66499994124598
20
160.66499999874628
10
-177.33099994124601
20
160.66499999874628
0
LWPOLYLINE
5
142
100
AcDbEntity
8
0
100
AcDbPolyline
90
4
70
1
43
0.0
10
-177.33099994124601
20
78.334999998746284
10
-161.66499994124598
20
78.334999998746284
10
-161.66499994124598
20
94.000999998746281
10
-177.33099994124601
20
94.000999998746295
0
LWPOLYLINE
5
143
100
AcDbEntity
8
0
100
AcDbPolyline
90
4
70
1
43
0.0
10
-177.33099994124601
20
111.66699999874626
10
-161.66499994124598
20
111.66699999874626
10
-161.66499994124598
20
127.33299999874629
10
-177.33099994124601
20
127.33299999874629
0
LWPOLYLINE
5
144
100
AcDbEntity
8
0
100
AcDbPolyline
90
4
70
1
43
0.0
10
-77.334999941246011
20
161.66499999874628
10
-61.668999941246
20
161.66499999874628
10
-61.668999941246
20
177.33099999874625
10
-77.334999941246011
20
177.33099999874625
0
LWPOLYLINE
5
145
100
AcDbEntity
8
0
100
AcDbPolyline
90
4
70
1
43
0.0
10
-193.996999941246
20
111.66699999874626
10
-178.33099994124598
20
111.66699999874626
10
-178.33099994124598
20
127.33299999874629
10
-193.996999941246
20
127.33299999874629
0
LWPOLYLINE
5
146
100
AcDbEntity
8
0
100
AcDbPolyline
90
4
70
1
43
0.0
10
-60.668999941246007
20
45.002999998746283
10
-45.002999941245996
20
45.002999998746283
10
-45.002999941245996
20
60.668999998746287
10
-60.668999941246007
20
60.668999998746287
0
LWPOLYLINE
5
147
100
AcDbEntity
8
0
100
AcDbPolyline
90
4
70
1
43
0.0
10
-77.334999941246011
20
45.002999998746283
10
-61.668999941246
20
45.002999998746283
10
-61.668999941246
20
60.668999998746287
10
-77.334999941246011
20
60.668999998746287
0
LWPOLYLINE
5
148
100
AcDbEntity
8
0
100
AcDbPolyline
90
4
70
1
43
0.0
10
-77.334999941246011
20
178.33099999874628
10
-61.668999941246
20
178.33099999874628
10
-61.668999941246
20
193.99699999874628
10
-77.334999941246011
20
193.99699999874628
0
LWPOLYLINE
5
149
100
AcDbEntity
8
0
100
AcDbPolyline
90
4
70
1
43
0.0
10
-60.668999941246007
20
178.33099999874628
10
-45.002999941245996
20
178.33099999874628
10
-45.002999941245996
20
193.99699999874628
10
-60.668999941246007
20
193.99699999874628
0
LWPOLYLINE
5
150
100
AcDbEntity
8
0
100
AcDbPolyline
90
4
70
1
43
0.0
10
-193.996999941246
20
178.33099999874628
10
-178.33099994124598
20
178.33099999874628
10
-178.33099994124598
20
193.99699999874628
10
-193.996999941246
20
193.99699999874628
0
LWPOLYLINE
5
151
100
AcDbEntity
8
0
100
AcDbPolyline
90
4
70
1
43
0.0
10
-177.33099994124601
20
178.33099999874628
10
-161.66499994124598
20
178.33099999874628
10
-161.66499994124598
20
193.99699999874628
10
-177.33099994124601
20
193.99699999874628
0
LWPOLYLINE
5
152
100
AcDbEntity
8
0
100
AcDbPolyline
90
4
70
1
43
0.0
10
-160.66499994124601
20
45.002999998746283
10
-144.99899994124601
20
45.002999998746283
10
-144.99899994124601
20
60.668999998746294
10
-160.66499994124601
20
60.668999998746294
0
LWPOLYLINE
5
153
100
AcDbEntity
8
0
100
AcDbPolyline
90
4
70
1
43
0.0
10
-177.33099994124601
20
45.002999998746283
10
-161.66499994124598
20
45.002999998746283
10
-161.66499994124598
20
60.668999998746294
10
-177.33099994124601
20
60.668999998746294
0
LWPOLYLINE
5
154
100
AcDbEntity
8
0
100
AcDbPolyline
90
4
70
1
43
0.0
10
-127.332999941246
20
45.002999998746283
10
-111.66699994124599
20
45.002999998746283
10
-111.66699994124599
20
60.668999998746287
10
-127.332999941246
20
60.668999998746294
0
LWPOLYLINE
5
155
100
AcDbEntity
8
0
100
AcDbPolyline
90
4
70
1
43
0.0
10
-143.99899994124598
20
128.33299999874626
10
-128.33299994124599
20
128.33299999874626
10
-128.33299994124599
20
143.99899999874629
10
-143.99899994124598
20
143.99899999874629
0
LWPOLYLINE
5
156
100
AcDbEntity
8
0
100
AcDbPolyline
90
4
70
1
43
0.0
10
-143.99899994124598
20
111.66699999874626
10
-128.33299994124599
20
111.66699999874626
10
-128.33299994124599
20
127.33299999874629
10
-143.99899994124598
20
127.33299999874629
0
LWPOLYLINE
5
157
100
AcDbEntity
8
0
100
AcDbPolyline
90
4
70
1
43
0.0
10
-143.99899994124598
20
45.002999998746283
10
-128.33299994124599
20
45.002999998746283
10
-128.33299994124599
20
60.668999998746294
10
-143.99899994124598
20
60.668999998746294
0
LWPOLYLINE
5
158
100
AcDbEntity
8
0
100
AcDbPolyline
90
4
70
1
43
0.0
10
-193.996999941246
20
61.668999998746287
10
-178.33099994124598
20
61.668999998746287
10
-178.33099994124598
20
77.334999998746298
10
-193.996999941246
20
77.334999998746298
0
LWPOLYLINE
5
159
100
AcDbEntity
8
0
100
AcDbPolyline
90
4
70
1
43
0.0
10
-193.996999941246
20
78.334999998746284
10
-178.33099994124598
20
78.334999998746284
10
-178.33099994124598
20
94.000999998746295
10
-193.996999941246
20
94.000999998746295
0
LWPOLYLINE
5
160
100
AcDbEntity
8
0
100
AcDbPolyline
90
4
70
1
43
0.0
10
-177.33099994124601
20
161.66499999874628
10
-161.66499994124598
20
161.66499999874628
10
-161.66499994124598
20
177.33099999874628
10
-177.33099994124601
20
177.33099999874628
0
LWPOLYLINE
5
161
100
AcDbEntity
8
0
100
AcDbPolyline
90
4
70
1
43
0.0
10
-193.996999941246
20
161.66499999874628
10
-178.33099994124598
20
161.66499999874628
10
-178.33099994124598
20
177.33099999874628
10
-193.996999941246
20
177.33099999874628
0
LWPOLYLINE
5
162
100
AcDbEntity
8
0
100
AcDbPolyline
90
4
70
1
43
0.0
10
-110.66699994124602
20
45.002999998746283
10
-95.000999941245993
20
45.002999998746283
10
-95.000999941245993
20
60.668999998746287
10
-110.66699994124602
20
60.668999998746287
0
LWPOLYLINE
5
163
100
AcDbEntity
8
0
100
AcDbPolyline
90
4
70
1
43
0.0
10
-60.668999941246007
20
161.66499999874628
10
-45.002999941245996
20
161.66499999874628
10
-45.002999941245996
20
177.33099999874625
10
-60.668999941246007
20
177.33099999874625
0
LWPOLYLINE
5
164
100
AcDbEntity
8
0
100
AcDbPolyline
90
4
70
1
43
0.0
10
-60.668999941246007
20
144.99899999874629
10
-45.002999941245996
20
144.99899999874629
10
-45.002999941245996
20
160.66499999874628
10
-60.668999941246007
20
160.66499999874628
0
LWPOLYLINE
5
165
100
AcDbEntity
8
0
100
AcDbPolyline
90
4
70
1
43
0.0
10
-160.66499994124601
20
178.33099999874628
10
-144.99899994124601
20
178.33099999874628
10
-144.99899994124601
20
193.99699999874628
10
-160.66499994124601
20
193.99699999874628
0
LWPOLYLINE
5
166
100
AcDbEntity
8
0
100
AcDbPolyline
90
4
70
1
43
0.0
10
-127.332999941246
20
111.66699999874626
10
-111.66699994124599
20
111.66699999874626
10
-111.66699994124599
20
127.33299999874629
10
-127.332999941246
20
127.33299999874629
0
LWPOLYLINE
5
167
100
AcDbEntity
8
0
100
AcDbPolyline
90
4
70
1
43
0.0
10
-193.996999941246
20
45.002999998746283
10
-178.33099994124598
20
45.002999998746283
10
-178.33099994124598
20
60.668999998746294
10
-193.996999941246
20
60.668999998746294
0
LWPOLYLINE
5
168
100
AcDbEntity
8
0
100
AcDbPolyline
90
4
70
1
43
0.0
10
-143.99899994124598
20
178.33099999874628
10
-128.33299994124599
20
178.33099999874628
10
-128.33299994124599
20
193.99699999874628
10
-143.99899994124598
20
193.99699999874628
0
LWPOLYLINE
5
169
100
AcDbEntity
8
0
100
AcDbPolyline
90
4
70
1
43
0.0
10
-193.996999941246
20
144.99899999874629
10
-178.33099994124598
20
144.99899999874629
10
-178.33099994124598
20
160.66499999874628
10
-193.996999941246
20
160.66499999874628
0
LWPOLYLINE
5
170
100
AcDbEntity
8
0
100
AcDbPolyline
90
4
70
1
43
0.0
10
-193.996999941246
20
95.000999998746281
10
-178.33099994124598
20
95.000999998746281
10
-178.33099994124598
20
110.66699999874629
10
-193.996999941246
20
110.66699999874629
0
LWPOLYLINE
5
171
100
AcDbEntity
8
0
100
AcDbPolyline
90
5
70
1
43
0.0
10
-210.66299994124597
20
161.66499999874628
10
-194.99699994124597
20
161.66499999874628
10
-194.99699994124597
20
177.33099999874628
10
-211.662999941246
20
177.33099999874628
10
-211.662999941246
20
163.90106797624608
42
-0.21342176528338949
0
LWPOLYLINE
5
172
100
AcDbEntity
8
0
100
AcDbPolyline
90
4
70
1
43
0.0
10
-211.662999941246
20
178.33099999874628
10
-194.99699994124597
20
178.33099999874628
10
-194.99699994124597
20
193.99699999874628
10
-211.662999941246
20
193.99699999874628
0
LWPOLYLINE
5
173
100
AcDbEntity
8
0
100
AcDbPolyline
90
4
70
1
43
0.0
10
-177.33099994124601
20
61.668999998746287
10
-161.66499994124598
20
61.668999998746287
10
-161.66499994124598
20
77.334999998746298
10
-177.33099994124601
20
77.334999998746298
0
LWPOLYLINE
5
174
100
AcDbEntity
8
0
100
AcDbPolyline
90
4
70
1
43
0.0
10
-211.662999941246
20
128.33299999874626
10
-194.99699994124597
20
128.33299999874626
10
-194.99699994124597
20
143.99899999874629
10
-211.662999941246
20
143.99899999874629
0
LWPOLYLINE
5
175
100
AcDbEntity
8
0
100
AcDbPolyline
90
5
70
1
43
0.0
10
-211.662999941246
20
144.99899999874629
10
-194.99699994124597
20
144.99899999874629
10
-194.99699994124597
20
160.66499999874628
10
-210.83457281649976
20
160.66499999874628
42
-0.12596795110236142
10
-211.662999941246
20
159.42893202124648
0
LWPOLYLINE
5
176
100
AcDbEntity
8
0
100
AcDbPolyline
90
4
70
1
43
0.0
10
-60.668999941246007
20
95.000999998746281
10
-45.002999941245996
20
95.000999998746281
10
-45.002999941245996
20
110.66699999874629
10
-60.668999941246007
20
110.66699999874629
0
LWPOLYLINE
5
177
100
AcDbEntity
8
0
100
AcDbPolyline
90
4
70
1
43
0.0
10
-60.668999941246007
20
78.334999998746284
10
-45.002999941245996
20
78.334999998746284
10
-45.002999941245996
20
94.000999998746266
10
-60.668999941246007
20
94.000999998746266
0
LWPOLYLINE
5
178
100
AcDbEntity
8
0
100
AcDbPolyline
90
5
70
1
43
0.0
10
-211.4269319637462
20
28.336999998746286
10
-194.99699994124597
20
28.336999998746286
10
-194.99699994124597
20
44.002999998746297
10
-211.662999941246
20
44.002999998746297
10
-211.662999941246
20
28.573067976246094
42
-0.02784244474455139
0
LWPOLYLINE
5
179
100
AcDbEntity
8
0
100
AcDbPolyline
90
4
70
1
43
0.0
10
-211.662999941246
20
45.002999998746283
10
-194.99699994124597
20
45.002999998746283
10
-194.99699994124597
20
60.668999998746294
10
-211.662999941246
20
60.668999998746294
0
LWPOLYLINE
5
180
100
AcDbEntity
8
0
100
AcDbPolyline
90
5
70
1
43
0.0
10
-211.662999941246
20
61.668999998746287
10
-194.99699994124597
20
61.668999998746287
10
-194.99699994124597
20
77.334999998746298
10
-210.83457281649976
20
77.334999998746298
42
-0.1259679511023612
10
-211.662999941246
20
76.098932021246469
0
LWPOLYLINE
5
181
100
AcDbEntity
8
0
100
AcDbPolyline
90
5
70
1
43
0.0
10
-210.66299994124597
20
78.334999998746284
10
-194.99699994124597
20
78.334999998746284
10
-194.99699994124597
20
94.000999998746295
10
-211.662999941246
20
94.000999998746295
10
-211.662999941246
20
80.571067976246098
42
-0.21342176528338996
0
LWPOLYLINE
5
182
100
AcDbEntity
8
0
100
AcDbPolyline
90
4
70
1
43
0.0
10
-211.662999941246
20
95.000999998746281
10
-194.99699994124597
20
95.000999998746281
10
-194.99699994124597
20
110.66699999874629
10
-211.662999941246
20
110.66699999874629
0
LWPOLYLINE
5
183
100
AcDbEntity
8
0
100
AcDbPolyline
90
4
70
1
43
0.0
10
-211.662999941246
20
111.66699999874626
10
-194.99699994124597
20
111.66699999874626
10
-194.99699994124597
20
127.33299999874629
10
-211.662999941246
20
127.33299999874629
0
LINE
5
184
100
AcDbEntity
8
0
100
AcDbLine
10
-194.99699994124597
20
194.99699999874625
30
0
11
-211.662999941246
21
194.99699999874625
31
0
0
LINE
5
185
100
AcDbEntity
8
0
100
AcDbLine
10
-211.662999941246
20
194.99699999874625
30
0
11
-211.662999941246
21
211.66299999874627
31
0
0
LINE
5
186
100
AcDbEntity
8
0
100
AcDbLine
10
-211.662999941246
20
211.66299999874627
30
0
11
-194.99699994124597
21
211.66299999874627
31
0
0
LINE
5
187
100
AcDbEntity
8
0
100
AcDbLine
10
-194.99699994124597
20
211.66299999874627
30
0
11
-194.99699994124597
21
194.99699999874625
31
0
0
LWPOLYLINE
5
188
100
AcDbEntity
8
0
100
AcDbPolyline
90
4
70
1
43
0.0
10
-193.996999941246
20
194.99699999874625
10
-178.33099994124598
20
194.99699999874625
10
-178.33099994124598
20
211.66299999874627
10
-193.996999941246
20
211.66299999874627
0
LINE
5
189
100
AcDbEntity
8
0
100
AcDbLine
10
-161.66499994124598
20
194.99699999874625
30
0
11
-177.33099994124601
21
194.99699999874625
31
0
0
LINE
5
190
100
AcDbEntity
8
0
100
AcDbLine
10
-177.33099994124601
20
194.99699999874625
30
0
11
-177.33099994124601
21
211.66299999874627
31
0
0
LINE
5
191
100
AcDbEntity
8
0
100
AcDbLine
10
-177.33099994124601
20
211.66299999874627
30
0
11
-161.66499994124598
21
211.66299999874627
31
0
0
LINE
5
192
100
AcDbEntity
8
0
100
AcDbLine
10
-161.66499994124598
20
211.66299999874627
30
0
11
-161.66499994124598
21
194.99699999874625
31
0
0
LINE
5
193
100
AcDbEntity
8
0
100
AcDbLine
10
-144.99899994124601
20
194.99699999874625
30
0
11
-160.66499994124601
21
194.99699999874625
31
0
0
LINE
5
194
100
AcDbEntity
8
0
100
AcDbLine
10
-160.66499994124601
20
194.99699999874625
30
0
11
-160.66499994124601
21
211.66299999874627
31
0
0
LINE
5
195
100
AcDbEntity
8
0
100
AcDbLine
10
-160.66499994124601
20
211.66299999874627
30
0
11
-144.99899994124601
21
211.66299999874627
31
0
0
LINE
5
196
100
AcDbEntity
8
0
100
AcDbLine
10
-144.99899994124601
20
211.66299999874627
30
0
11
-144.99899994124601
21
194.99699999874625
31
0
0
LWPOLYLINE
5
197
100
AcDbEntity
8
0
100
AcDbPolyline
90
4
70
1
43
0.0
10
-143.99899994124598
20
194.99699999874625
10
-128.33299994124599
20
194.99699999874625
10
-128.33299994124599
20
211.66299999874627
10
-143.99899994124598
20
211.66299999874627
0
LWPOLYLINE
5
198
100
AcDbEntity
8
0
100
AcDbPolyline
90
4
70
1
43
0.0
10
-127.332999941246
20
194.99699999874625
10
-111.66699994124599
20
194.99699999874625
10
-111.66699994124599
20
211.66299999874627
10
-127.332999941246
20
211.66299999874627
0
LWPOLYLINE
5
199
100
AcDbEntity
8
0
100
AcDbPolyline
90
4
70
1
43
0.0
10
-110.66699994124602
20
194.99699999874625
10
-95.000999941245993
20
194.99699999874625
10
-95.000999941245993
20
211.66299999874627
10
-110.66699994124602
20
211.66299999874627
0
LINE
5
200
100
AcDbEntity
8
0
100
AcDbLine
10
-78.334999941245997
20
194.99699999874625
30
0
11
-94.000999941246008
21
194.99699999874625
31
0
0
LINE
5
201
100
AcDbEntity
8
0
100
AcDbLine
10
-94.000999941246008
20
194.99699999874625
30
0
11
-94.000999941246008
21
211.66299999874627
31
0
0
LINE
5
202
100
AcDbEntity
8
0
100
AcDbLine
10
-94.000999941246008
20
211.66299999874627
30
0
11
-78.334999941245997
21
211.66299999874627
31
0
0
LINE
5
203
100
AcDbEntity
8
0
100
AcDbLine
10
-78.334999941245997
20
211.66299999874627
30
0
11
-78.334999941245997
21
194.99699999874625
31
0
0
LINE
5
204
100
AcDbEntity
8
0
100
AcDbLine
10
-61.668999941246
20
194.99699999874625
30
0
11
-77.334999941246011
21
194.99699999874625
31
0
0
LINE
5
205
100
AcDbEntity
8
0
100
AcDbLine
10
-77.334999941246011
20
194.99699999874625
30
0
11
-77.334999941246011
21
211.66299999874627
31
0
0
LINE
5
206
100
AcDbEntity
8
0
100
AcDbLine
10
-77.334999941246011
20
211.66299999874627
30
0
11
-61.668999941246
21
211.66299999874627
31
0
0
LINE
5
207
100
AcDbEntity
8
0
100
AcDbLine
10
-61.668999941246
20
211.66299999874627
30
0
11
-61.668999941246
21
194.99699999874625
31
0
0
LWPOLYLINE
5
208
100
AcDbEntity
8
0
100
AcDbPolyline
90
4
70
1
43
0.0
10
-60.668999941246007
20
194.99699999874625
10
-45.002999941245996
20
194.99699999874625
10
-45.002999941245996
20
211.66299999874627
10
-60.668999941246007
20
211.66299999874627
0
LINE
5
209
100
AcDbEntity
8
0
100
AcDbLine
10
-28.336999941246006
20
211.66299999874627
30
0
11
-28.336999941246006
21
194.99699999874625
31
0
0
LINE
5
210
100
AcDbEntity
8
0
100
AcDbLine
10
-28.336999941246006
20
194.99699999874625
30
0
11
-44.002999941246017
21
194.99699999874625
31
0
0
LINE
5
211
100
AcDbEntity
8
0
100
AcDbLine
10
-44.002999941246017
20
194.99699999874625
30
0
11
-44.002999941246017
21
211.66299999874627
31
0
0
LINE
5
212
100
AcDbEntity
8
0
100
AcDbLine
10
-44.002999941246017
20
211.66299999874627
30
0
11
-28.336999941246006
21
211.66299999874627
31
0
0
LWPOLYLINE
5
213
100
AcDbEntity
8
0
100
AcDbPolyline
90
4
70
1
43
0.0
10
-28.336999941246006
20
178.33099999874628
10
-28.336999941246006
20
193.99699999874628
10
-44.002999941246017
20
193.99699999874628
10
-44.002999941246017
20
178.33099999874628
0
LWPOLYLINE
5
214
100
AcDbEntity
8
0
100
AcDbPolyline
90
5
70
1
43
0.0
10
-28.336999941246006
20
163.90106797624605
10
-28.336999941246006
20
177.33099999874625
10
-44.002999941246017
20
177.33099999874625
10
-44.002999941246017
20
161.66499999874628
10
-29.336999941245985
20
161.66499999874628
42
-0.21342176528338683
0
LWPOLYLINE
5
215
100
AcDbEntity
8
0
100
AcDbPolyline
90
5
70
1
43
0.0
10
-28.336999941246006
20
144.99899999874629
10
-28.336999941246003
20
159.42893202124648
42
-0.12596795110235917
10
-29.165427065992194
20
160.66499999874628
10
-44.002999941246017
20
160.66499999874628
10
-44.002999941246017
20
144.99899999874629
0
LWPOLYLINE
5
216
100
AcDbEntity
8
0
100
AcDbPolyline
90
4
70
1
43
0.0
10
-28.336999941246006
20
128.33299999874626
10
-28.336999941246006
20
143.99899999874629
10
-44.002999941246017
20
143.99899999874629
10
-44.002999941246017
20
128.33299999874626
0
LWPOLYLINE
5
217
100
AcDbEntity
8
0
100
AcDbPolyline
90
4
70
1
43
0.0
10
-28.336999941246006
20
111.66699999874626
10
-28.336999941246006
20
127.33299999874629
10
-44.002999941246017
20
127.33299999874629
10
-44.002999941246017
20
111.66699999874626
0
LWPOLYLINE
5
218
100
AcDbEntity
8
0
100
AcDbPolyline
90
4
70
1
43
0.0
10
-28.336999941246006
20
95.000999998746281
10
-28.336999941246006
20
110.66699999874629
10
-44.002999941246017
20
110.66699999874629
10
-44.002999941246017
20
95.000999998746281
0
LWPOLYLINE
5
219
100
AcDbEntity
8
0
100
AcDbPolyline
90
5
70
1
43
0.0
10
-28.336999941246006
20
80.57106797624607
10
-28.336999941246006
20
94.000999998746266
10
-44.002999941246017
20
94.000999998746266
10
-44.002999941246017
20
78.334999998746284
10
-29.336999941246006
20
78.334999998746284
42
-0.21342176528338846
0
LWPOLYLINE
5
220
100
AcDbEntity
8
0
100
AcDbPolyline
90
5
70
1
43
0.0
10
-28.336999941246006
20
61.668999998746287
10
-28.336999941246006
20
76.098932021246497
42
-0.12596795110235817
10
-29.165427065992198
20
77.334999998746284
10
-44.002999941246017
20
77.334999998746284
10
-44.002999941246017
20
61.668999998746287
0
LWPOLYLINE
5
221
100
AcDbEntity
8
0
100
AcDbPolyline
90
4
70
1
43
0.0
10
-28.336999941246006
20
45.002999998746283
10
-28.336999941246006
20
60.668999998746287
10
-44.002999941246017
20
60.668999998746287
10
-44.002999941246017
20
45.002999998746283
0
LWPOLYLINE
5
222
100
AcDbEntity
8
0
100
AcDbPolyline
90
5
70
1
43
0.0
10
-28.336999941246006
20
28.573067976246076
10
-28.336999941246006
20
44.00299999874629
10
-44.002999941246017
20
44.00299999874629
10
-44.002999941246017
20
28.336999998746286
10
-28.573067918745792
20
28.336999998746286
42
-0.027842444744549388
0
LWPOLYLINE
5
223
100
AcDbEntity
8
0
100
AcDbPolyline
90
4
70
1
43
0.0
10
-60.668999941246007
20
28.336999998746286
10
-45.002999941245996
20
28.336999998746286
10
-45.002999941245996
20
44.00299999874629
10
-60.668999941246007
20
44.00299999874629
0
LWPOLYLINE
5
224
100
AcDbEntity
8
0
100
AcDbPolyline
90
5
70
1
43
0.0
10
-76.09893196374621
20
28.336999998746286
10
-61.668999941246
20
28.336999998746286
10
-61.668999941246
20
44.00299999874629
10
-77.334999941246011
20
44.00299999874629
10
-77.334999941246011
20
29.165427123492481
42
-0.12596795110235806
0
LWPOLYLINE
5
225
100
AcDbEntity
8
0
100
AcDbPolyline
90
5
70
1
43
0.0
10
-94.000999941246008
20
28.336999998746286
10
-80.571067918745811
20
28.336999998746283
42
-0.21342176528338974
10
-78.334999941245997
20
29.336999998746293
10
-78.334999941245997
20
44.00299999874629
10
-94.000999941246008
20
44.00299999874629
0
LWPOLYLINE
5
226
100
AcDbEntity
8
0
100
AcDbPolyline
90
4
70
1
43
0.0
10
-110.66699994124602
20
28.336999998746286
10
-95.000999941245993
20
28.336999998746286
10
-95.000999941245993
20
44.00299999874629
10
-110.66699994124602
20
44.00299999874629
0
LWPOLYLINE
5
227
100
AcDbEntity
8
0
100
AcDbPolyline
90
4
70
1
43
0.0
10
-127.332999941246
20
28.336999998746286
10
-111.66699994124599
20
28.336999998746286
10
-111.66699994124599
20
44.00299999874629
10
-127.332999941246
20
44.002999998746297
0
LWPOLYLINE
5
228
100
AcDbEntity
8
0
100
AcDbPolyline
90
4
70
1
43
0.0
10
-143.99899994124598
20
28.336999998746286
10
-128.33299994124599
20
28.336999998746286
10
-128.33299994124599
20
44.002999998746297
10
-143.99899994124598
20
44.002999998746297
0
LWPOLYLINE
5
229
100
AcDbEntity
8
0
100
AcDbPolyline
90
5
70
1
43
0.0
10
-159.42893196374621
20
28.336999998746286
10
-144.99899994124601
20
28.336999998746286
10
-144.99899994124601
20
44.002999998746297
10
-160.66499994124601
20
44.002999998746297
10
-160.66499994124601
20
29.165427123492492
42
-0.12596795110236053
0
LWPOLYLINE
5
230
100
AcDbEntity
8
0
100
AcDbPolyline
90
5
70
1
43
0.0
10
-177.33099994124601
20
28.336999998746286
10
-163.90106791874581
20
28.336999998746283
42
-0.21342176528338902
10
-161.66499994124598
20
29.336999998746293
10
-161.66499994124598
20
44.002999998746297
10
-177.33099994124601
20
44.002999998746297
0
LWPOLYLINE
5
231
100
AcDbEntity
8
0
100
AcDbPolyline
90
4
70
1
43
0.0
10
-193.996999941246
20
28.336999998746286
10
-178.33099994124598
20
28.336999998746286
10
-178.33099994124598
20
44.002999998746297
10
-193.996999941246
20
44.002999998746297
0
LWPOLYLINE
5
232
100
AcDbEntity
8
0
100
AcDbPolyline
90
4
70
1
43
0.0
10
-127.332999941246
20
178.33099999874628
10
-111.66699994124599
20
178.33099999874628
10
-111.66699994124599
20
193.99699999874628
10
-127.332999941246
20
193.99699999874628
0
LWPOLYLINE
5
233
100
AcDbEntity
8
0
100
AcDbPolyline
90
4
70
1
43
0.0
10
-60.668999941246007
20
61.668999998746287
10
-45.002999941245996
20
61.668999998746287
10
-45.002999941245996
20
77.334999998746284
10
-60.668999941246007
20
77.334999998746284
0
LWPOLYLINE
5
234
100
AcDbEntity
8
0
100
AcDbPolyline
90
4
70
1
43
0.0
10
-193.996999941246
20
128.33299999874626
10
-178.33099994124598
20
128.33299999874626
10
-178.33099994124598
20
143.99899999874629
10
-193.996999941246
20
143.99899999874629
0
LWPOLYLINE
5
235
100
AcDbEntity
8
0
100
AcDbPolyline
90
4
70
1
43
0.0
10
-60.668999941246007
20
111.66699999874626
10
-45.002999941245996
20
111.66699999874626
10
-45.002999941245996
20
127.33299999874629
10
-60.668999941246007
20
127.33299999874629
0
LWPOLYLINE
5
236
100
AcDbEntity
8
0
100
AcDbPolyline
90
4
70
1
43
0.0
10
-110.66699994124602
20
178.33099999874628
10
-95.000999941245993
20
178.33099999874628
10
-95.000999941245993
20
193.99699999874628
10
-110.66699994124602
20
193.99699999874628
0
LWPOLYLINE
5
237
100
AcDbEntity
8
0
100
AcDbPolyline
90
4
70
1
43
0.0
10
-94.000999941246008
20
178.33099999874628
10
-78.334999941245997
20
178.33099999874628
10
-78.334999941245997
20
193.99699999874628
10
-94.000999941246008
20
193.99699999874628
0
LWPOLYLINE
5
238
100
AcDbEntity
8
0
100
AcDbPolyline
90
4
70
1
43
0.0
10
-94.000999941246008
20
45.002999998746283
10
-78.334999941245997
20
45.002999998746283
10
-78.334999941245997
20
60.668999998746287
10
-94.000999941246008
20
60.668999998746287
0
LWPOLYLINE
5
239
100
AcDbEntity
8
0
100
AcDbPolyline
90
4
70
1
43
0.0
10
-60.668999941246007
20
128.33299999874626
10
-45.002999941245996
20
128.33299999874626
10
-45.002999941245996
20
143.99899999874629
10
-60.668999941246007
20
143.99899999874629
0
LWPOLYLINE
5
240
100
AcDbEntity
8
0
100
AcDbPolyline
90
4
70
1
43
0.0
10
-213.662999941246
20
31.670000013647446
10
-26.336999941246013
20
31.670000013647446
10
-26.336999941246013
20
41.670000013647446
10
-213.662999941246
20
41.670000013647446
0
LINE
5
241
100
AcDbEntity
8
0
100
AcDbLine
10
-29.336999956147167
20
29.337000013647447
30
0
11
-210.66299992634484
21
29.337000013647447
31
0
0
LWPOLYLINE
5
242
100
AcDbEntity
8
0
100
AcDbPolyline
90
4
70
1
43
0.0
10
-213.662999941246
20
48.336000013647443
10
-26.336999941246013
20
48.336000013647443
10
-26.336999941246013
20
58.336000013647443
10
-213.662999941246
20
58.336000013647443
0
LWPOLYLINE
5
243
100
AcDbEntity
8
0
100
AcDbPolyline
90
4
70
1
43
0.0
10
-213.662999941246
20
65.002000013647447
10
-26.336999941246013
20
65.002000013647447
10
-26.336999941246013
20
75.002000013647447
10
-213.662999941246
20
75.002000013647447
0
LWPOLYLINE
5
244
100
AcDbEntity
8
0
100
AcDbPolyline
90
4
70
1
43
0.0
10
-213.662999941246
20
81.668000013647429
10
-26.336999941246013
20
81.668000013647429
10
-26.336999941246013
20
91.668000013647429
10
-213.662999941246
20
91.668000013647429
0
LWPOLYLINE
5
245
100
AcDbEntity
8
0
100
AcDbPolyline
90
4
70
1
43
0.0
10
-213.662999941246
20
98.33400001364744
10
-26.336999941246013
20
98.33400001364744
10
-26.336999941246013
20
108.33400001364744
10
-213.662999941246
20
108.33400001364744
0
LWPOLYLINE
5
246
100
AcDbEntity
8
0
100
AcDbPolyline
90
4
70
1
43
0.0
10
-213.662999941246
20
115.00000001364742
10
-26.336999941246013
20
115.00000001364742
10
-26.336999941246013
20
125.00000001364742
10
-213.662999941246
20
125.00000001364742
0
LWPOLYLINE
5
247
100
AcDbEntity
8
0
100
AcDbPolyline
90
4
70
1
43
0.0
10
-213.662999941246
20
131.66600001364742
10
-26.336999941246013
20
131.66600001364742
10
-26.336999941246013
20
141.66600001364742
10
-213.662999941246
20
141.66600001364742
0
LWPOLYLINE
5
248
100
AcDbEntity
8
0
100
AcDbPolyline
90
4
70
1
43
0.0
10
-213.662999941246
20
148.33200001364742
10
-26.336999941246013
20
148.33200001364742
10
-26.336999941246013
20
158.33200001364742
10
-213.662999941246
20
158.33200001364742
0
LWPOLYLINE
5
249
100
AcDbEntity
8
0
100
AcDbPolyline
90
4
70
1
43
0.0
10
-213.662999941246
20
164.99800001364741
10
-26.336999941246013
20
164.99800001364741
10
-26.336999941246013
20
174.99800001364741
10
-213.662999941246
20
174.99800001364741
0
LWPOLYLINE
5
250
100
AcDbEntity
8
0
100
AcDbPolyline
90
4
70
1
43
0.0
10
-213.662999941246
20
181.66400001364741
10
-26.336999941246013
20
181.66400001364741
10
-26.336999941246013
20
191.66400001364741
10
-213.662999941246
20
191.66400001364741
0
LWPOLYLINE
5
251
100
AcDbEntity
8
0
100
AcDbPolyline
90
4
70
1
43
0.0
10
-213.662999941246
20
198.33000001364741
10
-26.336999941246013
20
198.33000001364741
10
-26.336999941246013
20
208.33000001364741
10
-213.662999941246
20
208.33000001364741
0
LWPOLYLINE
5
252
100
AcDbEntity
8
0
100
AcDbPolyline
90
4
70
1
43
0.0
10
-234.99999994124596
20
4.9999999987462962
10
-4.9999999987462962
20
4.9999999987462829
10
-4.9999999987462829
20
234.99999997222466
10
-234.99999994124602
20
234.99999997222466
0
LINE
5
253
100
AcDbEntity
8
0
100
AcDbLine
10
-4.9999999987462962
20
4.9999999987462829
30
0
11
-234.99999994124602
21
4.9999999987462962
31
0
0
LINE
5
254
100
AcDbEntity
8
0
100
AcDbLine
10
-4.9999999987462962
20
234.99999997222466
30
0
11
-4.9999999987462962
21
4.9999999987462829
31
0
0
LINE
5
255
100
AcDbEntity
8
0
100
AcDbLine
10
-234.99999994124602
20
4.9999999987462962
30
0
11
-234.99999994124602
21
234.99999997222466
31
0
0
LINE
5
256
100
AcDbEntity
8
0
100
AcDbLine
10
-234.99999994124602
20
234.99999997222466
30
0
11
-4.9999999987462829
21
234.99999997222466
31
0
0
CIRCLE
5
257
100
AcDbEntity
8
0
100
AcDbCircle
10
-26.336999941246006
20
161.66499999874628
30
0
40
1.5000000000000036
210
0
220
-0
230
1
0
CIRCLE
5
258
100
AcDbEntity
8
0
100
AcDbCircle
10
-213.662999941246
20
26.336999998746286
30
0
40
1.4999999999999858
210
0
220
-0
230
1
0
CIRCLE
5
259
100
AcDbEntity
8
0
100
AcDbCircle
10
-213.662999941246
20
78.334999998746284
30
0
40
1.5000000000000213
210
0
220
-0
230
1
0
CIRCLE
5
260
100
AcDbEntity
8
0
100
AcDbCircle
10
-78.334999941246011
20
26.336999998746286
30
0
40
1.5000000000000036
210
0
220
-0
230
1
0
CIRCLE
5
261
100
AcDbEntity
8
0
100
AcDbCircle
10
-26.336999941246006
20
78.334999998746284
30
0
40
1.5000000000000036
210
0
220
-0
230
1
0
CIRCLE
5
262
100
AcDbEntity
8
0
100
AcDbCircle
10
-26.336999941246013
20
26.336999998746286
30
0
40
1.5000000000000036
210
0
220
-0
230
1
0
CIRCLE
5
263
100
AcDbEntity
8
0
100
AcDbCircle
10
-161.66499994124598
20
26.336999998746286
30
0
40
1.4999999999999858
210
0
220
-0
230
1
0
CIRCLE
5
264
100
AcDbEntity
8
0
100
AcDbCircle
10
-213.662999941246
20
161.66499999874628
30
0
40
1.4999999999999858
210
0
220
-0
230
1
0
CIRCLE
5
265
100
AcDbEntity
8
0
100
AcDbCircle
10
-26.336999941246006
20
213.66299999874627
30
0
40
1.4999999999999947
210
0
220
-0
230
1
0
CIRCLE
5
266
100
AcDbEntity
8
0
100
AcDbCircle
10
-78.334999941245997
20
213.66299999874627
30
0
40
1.4999999999999858
210
0
220
-0
230
1
0
CIRCLE
5
267
100
AcDbEntity
8
0
100
AcDbCircle
10
-213.662999941246
20
213.66299999874627
30
0
40
1.4999999999999858
210
0
220
-0
230
1
0
CIRCLE
5
268
100
AcDbEntity
8
0
100
AcDbCircle
10
-161.66499994124598
20
213.66299999874627
30
0
40
1.5000000000000213
210
0
220
-0
230
1
0
ENDSEC
0
SECTION
2
OBJECTS
0
DICTIONARY
5
C
100
AcDbDictionary
3
ACAD_GROUP
350
D
3
ACAD_MLINESTYLE
350
17
0
DICTIONARY
5
D
100
AcDbDictionary
0
DICTIONARY
5
1A
330
C
100
AcDbDictionary
0
DICTIONARY
5
17
100
AcDbDictionary
0
ENDSEC
0
EOF
